Weezer - Undone (the Sweater Song) Chords & Tabs

 

Undone (the Sweater Song) Chords & Tabs

Weezer Chords & Tabs

Version: 5 Type: Tab 0 ratings
1 star 2 stars 3 stars 4 stars 5 stars
comments

Undone (the Sweater Song) Tab

   
Undone the sweater song by weezer
tabbed by polly_monster
i figured it out so enjoy! and be careful with you sweaters

verse 1 and 2 (with ppl talking and guy saying "yeah")
drum part for intro
snare  |-------*-----**---*-----------
bass   |---*------*----*--------------
then just the standard beat
 drums intro then...
 |---------------------------
 |-----------0---------------
 |--------3------------------
 |-----2---------------------
 |---------------------------
 |--3------------------------

 |---------------------------
 |-----------0---------------
 |--------3------------------
 |-----2---------------------
 |---3-----------------------
 |---------------------------
[ Tab from: http://www.guitartabs.cc/tabs/w/weezer/undone_the_sweater_song_tab_ver_5.html ]
 |---------------------------
 |-----------0---------------
 |--------5------------------
 |-----4---------------------
 |--5------------------------
 |---------------------------

 |---------------------------
 |-----------0---------------
 |--------3------------------
 |-----2---------------------
 |--3------------------------
 |---------------------------

lyrics:
oh me..baby
god damn...i am
i cant sing and
hear me ..know me

chorus:
G       C          D         C  
if you want to distroy my sweater (whoa whoa wooo)
G                C          D         C
just hold this thread as i waaaaaalk awaaaaaay

and the rest of the song is pretty much like that except for the lil
solo bit which i ahven't figured out yet.
good luck, have fun, and dont forget to put pants on in the morin'!
be careful with your sweaters...they tend to snag on nipple clips...
Comments