Weezer - The World Has Turned And Left Me Here Chords & Tabs

 

The World Has Turned And Left Me Here Chords & Tabs

Weezer Chords & Tabs

Version: 2 Type: Tab 0 ratings
1 star 2 stars 3 stars 4 stars 5 stars
comments

The World Has Turned And Left Me Here Tab

   
The World Has Turned and Left Me Here
as performed by Weezer
Words and Music by Rivers Cuomo and Patrick Wilson

4/4 Time
All strings tuned a half-step down [Eb Ab Db Gb Bb Eb]
(All chords relative to standard tuning)


Intro

    G5       D/A              B5/F#    C/G
|:|-------------------------|-------------------------|:|
|:|-------------------------|-------------------------|:|
|:|-------------------------|-------------------------|:|
|:|-5--5--5--4--4--4--4--4--|-4--4--4--2--2--2--2--2--|:|
|:|-5--5--5--5--5--5--5--5--|-2--2--2--3--3--3--3--3--|:| {distorted}
|:|-3--3--3--5--5--5--5--5--|-2--2--2--3--3--3--3--3--|:|
////////////////////////////////////////////////////////\
|:|-------------------------|-------------------------|:|
|:|------0---------------0--|------0---------------0--|:|
|:|----0---0------0--------0|----0---0------0--------0|:|
|:|-------------4---4-------|-------------2---2-------|:|
|:|----------5--------5-----|-2--------3-------3------|:| {clean}
|:|-3-----------------------|-------------------------|:|
                                        (Play 4 times)


Chorus

G5  D/A             B5/F# C/G
The world has turned and left me here,
G5   D/A        B5/F# C/G
just where I was before you appeared.
G5  D/A          B5/F# C/G
And in your place an empty space
G5  D/A            B5/F# C/G
has filled the void behind my face.


Verse

 (Em7)                     (Cmaj7)
|-------------------------|-------------------------|
|-------------------------|----------0--------------|
|----------7-----------7--|-------0--------0--------|
|-------5--------5--------|----2--------------2-----|
|----7--------------7-----|-3-----------------------|
|-0-----------------------|-------------------------|
        I  just  made  love       to your  sweet  mem

 (Asus2)                   (Cmaj7)
|-------------------------|-------------------------|
|----------0--------------|----------0--------------|
|-------2--------2--------|-------0--------0--------|
|----2--------------2-----|----2--------------2-----|
|-0-----------------------|-3--------------------3--|
|-------------------------|-------------------------|
    -      ory       one thousand times in my head.

Em7             Cmaj7           Asus2 Cmaj7
You said you loved it more than ever, you said.


Pre-Chorus

  B5                        C5
|-------------------------|-------------------------|
|-------------------------|-------------------------|
|-------------------------|-------------------------|
|-4--4--4--4--4--4--4--4--|-5--5--5--5--5--5--5--5--|
|-2--2--2--2--2--2--2--2--|-3--3--3--3--3--3--3--3--|
|-------------------------|-------------------------|
  You      remain           turned   away,

  B5                        C5          D5
|-------------------------|-------------------------|
|-------------------------|-------------------------|
|-------------------------|-------------------------|
|-4--4--4--4--4--4--4--4--|-5--5--5--5--7--7--7--7--|
|-2--2--2--2--2--2--2--2--|-3--3--3--3--5--5--5--5--|
|-------------------------|-------------------------|
  turn  - ing fur   -  ther ev   -   'ry day.


Chorus

G5  D/A             B5/F# C/G
The world has turned and left me here,
G5   D/A        B5/F# C/G
just where I was before you appeared.
G5  D/A          B5/F# C/G
And in your place an empty space
G5  D/A            B5/F# C/G
has filled the void behind my face.


Verse

Em7               Cmaj7           Asus2     Cmaj7
I talked for hours to your wallet photograph and you just listened.
Em7                Cmaj7      Asus2       Cmaj7
You laughed enchanted by my intellect, or maybe you didn't.


Pre-Chorus

B5         C5           B5              C5    D5
You remain turned away, turning further ev'ry day.


Chorus

G5  D/A             B5/F# C/G
The world has turned and left me here,
G5   D/A        B5/F# C/G
just where I was before you appeared.
G5  D/A          B5/F# C/G
And in your place an empty space
G5  D/A            B5/F# C/G
has filled the void behind my face.


Solo

  G5                        G/B
|-------------------------|-------------------------|
|-------------------------|-------------------------|
|-0----------------0^-----|/4--------4-----4--4--4--|
|-------------------------|-------------------------|
|-------------------------|-------------------------|
|-------------------------|-------------------------|

  C5                        A5
|--0-0--0-0---------------|-------------------------|
|-3-3--3-3--3--1--0h1--0--|-(0)---------------------|
|-------------------------|-------------------------|
|-------------------------|-------------------------|
|-------------------------|-------------------------|
|-------------------------|-------------------------|
[ Tab from: http://www.guitartabs.cc/tabs/w/weezer/the_world_has_turned_and_left_me_here_tab_ver_2.html ]
  G5                        G/B
|-------------------------|-------------------------|
|------10-8--7~~~~~~~~~7--|----10-8--7----------(7)/|
|-------------------------|-------------------------|
|-------------------------|-9-----------------------|
|-------------------------|-------------------------|
|-------------------------|-------------------------|

  C5                        A5
|-------------------------|-------------------------|
|151515p1215p1215b12------|---------12-------12-----|
|------------------14b12--|-------12--1414b--12-----|
|-----------------------14|141414---------14--141414|
|-------------------------|-------------------------|
|-------------------------|-------------------------|


Pre-Chorus

  B5                        C5
|-------------------------|-------------------------|
|-------------------------|-------------------------|
|-8--8--8--8--8--9--11-12-|-14-14-14-14-12-12-12-12-|
|-------------------------|-------------------------|
|-6--6--6--6--6--7--9--10-|-12-12-12-12-10-10-10-10-|
|-------------------------|-------------------------|
  You      remain           turned   away,

  B5                        C5           D5
|-------------------------|-------------------------|
|-------------------------|/12-12-12-12-10b-8h10-7--|
|-8--8--8--8--8--9--11-12-|-------------------------|
|-------------------------|/9--9--9--9--------------|
|-6--6--6--6--6--7--9--10-|-------------------------|
|-------------------------|-------------------------|
  turn  -  ing fur  -  ther ev   -   'ry day.


Chorus

G5  D/A             B5/F# C/G
The world has turned and left me here,
G5   D/A        B5/F# C/G
just where I was before you appeared.
G5  D/A          B5/F# C/G
And in your place an empty space
G5  D/A            B5/F# C/G
has filled the void behind my face.

Chorus

G5  D/A             B5/F# C/G
The world has turned and left me here,
(Do you believe what I sing now?)
G5   D/A        B5/F# C/G
just where I was before you appeared.
(Do you believe what I sing?)
G5  D/A          B5/F# C/G
And in your place an empty space
(Do you believe?)
G5  D/A            B5/F# C/G
has filled the void behind my face.
(Be-lieve?)

G5       D/A          B5/F# C/G
Do you believe what I sing now?
G5       D/A          B5/F# C/G
Do you believe what I sing now?
G5       D/A   B5/F# C/G
Do you believe?
G5 D/A B5/F# C/G


Outro

    G5       D/A              B5/F#    C/G
|:|-------------------------|-------------------------|:|
|:|-------------------------|-7--7--7-----------------|:|
|:|-12-12-12-11-11-11-9--7--|----------9--9\7-5--5--5-|:|
|:|-------------------------|-4--4--4-----------------|:|
|:|-10-10-10-9--9--9--7--5--|----------7--7\5-3--3--3-|:|
|:|-------------------------|-------------------------|:|(Play 2 times)

  G5       D/A               B5/F#    C/G
|--------------------------|-------------------------|
|--------------------------|-------------------------|
|-12-12-12-14-14-14-14-14--|-14-14-14bbbbbbbbbbbbbbb-|
|--------------------------|-------------------------|
|-10-10-10-12-12-12-12-12--|-12-12-12bbbbbbbbbbbbbbb-|
|--------------------------|-------------------------|

  G        D/A              B5/F#    C5/G
|-------------------------|-------------------------|
|------0---------------0--|------0---------------0--|
|----0---0------0--------0|----0---0------0--------0|
|-------------4---4-------|-------------2---2-------|
|----------5--------5-----|-2--------3-------3------| {clean}
|-3-----------------------|-------------------------|
////////////////////////////////////////////////////\
|-------------------------|-------------------------|
|-------------------------|-------------------------|
|-12-12-12-12-12-12-12-12-|-12-12-12-12-12-12-12-12-|
|-------------------------|-------------------------|
|-10-10-10-10-10-10-10-10-|-10-10-10-10-10-10-10-10-| {distorted}
|-------------------------|-------------------------|

 (Gmaj7)
|-------------------------|-------------------------|
|------0---------------0--|------0---------------0--|
|----0---0------0--------0|----0---0------0--------0|
|-------------4---4-------|-------------2---2-------|
|----------5--------5-----|-2--------3-------3------|
|-3-----------------------|-------------------------|
////////////////////////////////////////////////////\
|-------------------------|-------------------------|
|-------------------------|-------------------------|
|-11----------------------|-(11)--------------------|
|-------------------------|-------------------------|
|-9-----------------------|-(9)---------------------|
|-------------------------|-------------------------|

 (Gmaj7)
|-------------------------|-------------------------|-------------------------|
|------0---------------0--|------0-----------0------|-------------------------|
|----0---0------0--------0|----0---0-------0---0----|-------------------------|
|------------4----4-------|------------0h2------2p0-|-------------------------|
|----------5---------5----|-2--------3--------------|-------------------------|
|-3-----------------------|-------------------------|-3-----------------------|
Comments