Weezer - The World Has Turned And Left Me Here Chords & Tabs

 

The World Has Turned And Left Me Here Chords & Tabs

Weezer Chords & Tabs

Version: 1 Type: Tab 0 ratings
1 star 2 stars 3 stars 4 stars 5 stars
comments

The World Has Turned And Left Me Here Tab

   
Band: Weezer
Song: The World Has Turned And Left Me Here
Album: Weezer (the blue One)
Guitarist Rivers, and the other guy
Tabbed By: Cody (munky) sexual_monkey182@hotmail.com

INTRO (guitar one, clean)

eb|---------------------------------------------|
Bb|-----0-------------0-------0-------------0---|
Gb|---0---0-----0-------0---0---0-----0-------0-|
Db|-----------4---4-----------------2---2-------|x4
Ab|---------5-------5-----2-------3-------3-----|
Eb|-3-------------------------------------------|

INTRO/CHORUS (guitar 2, distorted)

eb|---------------------------------|
Bb|---------------------------------|
Gb|---------7-7-7-7-4-4-4-4-5-5-5-5-|
Db|-5-5-5-5-7-7-7-7-4-4-4-4-5-5-5-5-|
Ab|-5-5-5-5-5-5-5-5-2-2-2-2-3-3-3-3-|
Eb|-3-3-3-3-5-5-5-5-----------------|

VERSE 

guitar one, slightly overdriven
eb|---------------------------------------------------|
Bb|---------------------0-----------0-----------0-----|
Gb|-------7-----7-----0---0-------2---2-------0---0---|
Db|-----5---5-------2-------2---2-------2---2-------2-|
Ab|---7-------7---3-----------0-----------3-----------|
Eb|-0-------------------------------------------------|

guitar 2, distorted
eb|---------------------------------|
Bb|---------------------------------|
Gb|-9-9-9-9-5-5-5-5-2-2-2-2-5-5-5-5-|
Db|-9-9-9-9-5-5-5-5-2-2-2-2-5-5-5-5-|
Ab|-7-7-7-7-3-3-3-3-0-0-0-0-3-3-3-3-|
Eb|---------------------------------|

PRECHORUS

both guitars
eb|-----------------------------------------------------------------|
Bb|-----------------------------------------------------------------|
Gb|-4-4-4-4-4-4-4-4-5-5-5-5-5-5-5-5-4-4-4-4-4-4-4-4-5-5-5-5-7-7-7-7-|
Db|-4-4-4-4-4-4-4-4-5-5-5-5-5-5-5-5-4-4-4-4-4-4-4-4-5-5-5-5-7-7-7-7-|
Ab|-2-2-2-2-2-2-2-2-3-3-3-3-3-3-3-3-2-2-2-2-2-2-2-2-3-3-3-3-5-5-5-5-|
Eb|-----------------------------------------------------------------|

SOLO

guitar one (distorted)
[ Tab from: http://www.guitartabs.cc/tabs/w/weezer/the_world_has_turned_and_left_me_here_tab.html ]
eb|----------------------0-0-0-0----------|---------------------|
Bb|---------------------3-3-3-3-3-1-0h1-0-|-10-8-7-7---10-8-7-7-|
Gb|-0-0b1r0*-/4-4-4-4-4-------------------|----------9----------|
Db|---------------------------------------|---------------------|
Ab|---------------------------------------|---------------------|
Eb|---------------------------------------|---------------------|
* bend by depressing the string behind the nut

eb|---------------------------------------------------------------------------|
Bb|-/15-15-15p12-15p12-15b17-12------------------------12----------12---------|
Gb|----------------------------14b16r14-12-----------12--14-14b15--12---------|
Db|---------------------------------------14-14-14-14------------14--14-14-14-|
Ab|---------------------------------------------------------------------------|
Eb|---------------------------------------------------------------------------|

(you remain, turned away...)
eb|-------------------------------------------|
Bb|-------------------------------------------|
Gb|-8-8-8-8-8-9-11-12-14-14-14-14-12-12-12-12-|
Db|-------------------------------------------|
Ab|-6-6-6-6-6-7-9--10-12-12-12-12-10-10-10-10-|
Eb|-------------------------------------------|

(turning further every day...)
eb|-----------------------------------------------|
Bb|------------------/12-12-12-12-10b12r10-8h10-7-|
Gb|-8-8-8-8-8-9-11-12-----------------------------|
Db|------------------/9--9--9--9------------------|
Ab|-6-6-6-6-6-7-9--10-----------------------------|
Eb|-----------------------------------------------|

OUTRO

(clean guitar plays the intro over and over again)

other guitar plays this...
eb|--------------------------------------------|
Bb|--------------------------------------------|
Gb|-12-12-12-11-11-11-9-7-11-11-11-9-9/7-5-5-5-|
Db|--------------------------------------------|
Ab|-10-10-10-9--9--9--7-5-9--9--9--7-7/5-3-3-3-|
Eb|--------------------------------------------|

end with this on the clean guitar...
eb|-------------------------------------------------|
Bb|-----0-------------0-------0-----------0---------|
Gb|---0---0-----0-------0---0---0-------0---0-------|
Db|-----------4---4-----------------0h2-------2p0---|
Ab|---------5-------5-----2-------3-----------------|
Eb|-3---------------------------------------------3-|

This is a cool song, learn it, play it, make money.----Party all the time
                                                                CODY
Comments