Weezer - The World Has Turned And Left Me Here Chords & Tabs

 

The World Has Turned And Left Me Here Chords & Tabs

Weezer Chords & Tabs

Version: 3 Type: Bass Tab 0 ratings
1 star 2 stars 3 stars 4 stars 5 stars
comments

The World Has Turned And Left Me Here Bass Tab

   
Tuning: 1/2 step down

CHORUS
Gb|---------------------------------|
Db|---------------------------------|
Ab|-------5-5-5-5-5-2-2-2-3-3-3-3-3-|x4(most of the time)
Eb|-3-3-3---------------------------|

VERSE
Gb|-----------------------------------------------------------------|
Db|-----------------------------------------------------------------|
Ab|-----------------3-3-3-3-3-3-3-3-0-0-0-0-0-0-0-0-3-3-3-3-3-3-3-3-|x2
Eb|-0-0-0-0-0-0-0-0-------------------------------------------------|
[ Tab from: http://www.guitartabs.cc/tabs/w/weezer/the_world_has_turned_and_left_me_here_btab_ver_3.html ]
PRECHORUS
Gb|-----------------------------------------------------------------|
Db|-----------------------------------------------------------------|
Ab|-2-2-2-2-2-2-2-2-3-3-3-3-3-3-3-3-2-2-2-2-2-2-2-2-3-3-3-3-5-5-5-5-|
Eb|-----------------------------------------------------------------|

GUITAR SOLO
Gb|-----------------------------------------------------------------|
Db|-----------------------------------------------------------------|
Ab|-----------------2-2-2-2-2-2-2-2-3-3-3-3-3-3-3-3-0-0-0-0-0-0-0-0-|x2
Eb|-3-3-3-3-3-3-3-3-------------------------------------------------|
Comments