Weezer - The World Has Turned And Left Me Here Chords & Tabs

 

The World Has Turned And Left Me Here Chords & Tabs

Weezer Chords & Tabs

Version: 1 Type: Bass Tab 0 ratings
1 star 2 stars 3 stars 4 stars 5 stars
comments

The World Has Turned And Left Me Here Bass Tab

   
weezer
the world has turned and left me here
tabbed by Jason The Great (DAWgAWD@HoTMaiL.com)

this is based heavily on the guitar part, if you feel it is incorrect,
i would advise you to visit www.weezer.net and check their version for
it differs from mine.

CHORUS
Gb|---------------------------------|
Db|---------------------------------|
Ab|---------5-5-5-5-2-2-2-2-3-3-3-3-|
Eb|-3-3-3-3-------------------------|
[ Tab from: http://www.guitartabs.cc/tabs/w/weezer/the_world_has_turned_and_left_me_here_btab.html ]
VERSE
Gb|-----------------------------------------------------------------|
Db|-2-2-2-2-2-2-2-2-------------------------------------------------|
Ab|-----------------3-3-3-3-3-3-3-3-0-0-0-0-0-0-0-0-3-3-3-3-3-3-3-3-|
Eb|-----------------------------------------------------------------|

PRECHORUS
Gb|-----------------------------------------------------------------|
Db|-----------------------------------------------------------------|
Ab|-2-2-2-2-2-2-2-2-3-3-3-3-3-3-3-3-2-2-2-2-2-2-2-2-3-3-3-3-5-5-5-5-|
Eb|-----------------------------------------------------------------|

STRUCTURE

CHORUS x 8
VERSE x 2
PRECHORUS x 1
CHORUS x 4
VERSE x 2
PRECHORUS x 1
CHORUS x 4
VERSE x 2
PRECORUS x1
CHORUS (until the end)

Comments