Weezer - The Sweater Song Chords & Tabs

 

The Sweater Song Chords & Tabs

Weezer Chords & Tabs

Version: 1 Type: Tab 2 ratings
1 star 2 stars 3 stars 4 stars 5 stars
comments

The Sweater Song Tab

First tab ever, rate it thanks...Josh

Guitar one doing intro...
-------------------------------
--------0-------0----0------0--
------3-------3-----5------3---
----2-------2------4------2----
----------3-------5------3-----
-3-----------------------------
[ Tab from: http://www.guitartabs.cc/tabs/w/weezer/the_sweater_song_tab.html ]
intro...
Guitar 2
  G     C     D  Hit each chord/ power chord FOUR times.
--3----0------2-------------------
--3----1------3-------------------
--0----0------2-------------------
--0----2------0-------------------
--2----3--------------------------
--3-------------------------------

Or you could do something a little more easy...
-------------------------------------
-------------------------------------
------5---7----5---------------------
--5---5---7----5---------------------
--5---3---5----3---------------------
--3----------------------------------

first tab, any problems my aim is Joshinator4059..thanks 
Comments