Weezer - The Good Life Chords & Tabs

 

The Good Life Chords & Tabs

Weezer Chords & Tabs

Version: 3 Type: Tab 0 ratings
1 star 2 stars 3 stars 4 stars 5 stars
comments

The Good Life Tab

   
Tabbed by: burndttoast and half the credit goes to
Dave Dunlop and Aydin Turgay

1/2 Step down (though it still sounds good in standard)

This is a compilation of my stuff and another I found online.

intro
e|-----------------------------------------------------------------|
B|-----------------------------------------------------------------|
G|-----------------------------------------------------------------|
D|------5-5-5--2---------------------------------------------------|
A|------5-5-5--2---------------------------------------------------|
E|------3-3-3--0---------------------------------------------------|
        (G)   (E)  (pattern:  G   E G   E G   E G    E)

verse
e|-----------------------------------------------------------------|
B|-----------------------------------------------------------------|
G|-----------------------------------------------------------------|
D|------5----------------7--------7----------------------9---------|
A|------5----------------5--------7----------------------7---------|
E|------3----------------5--------5----------------------7---------|
      When I look in the mirror / I can't believe what I see....

pre-chorus
e|-----------------------------------------------------------------|
B|-----------------------------------------------------------------|
G|-----------------------------------------------------------------|
D|------5-----------7-------7--------------9-----------------------|
A|------5-----------5-------7--------------7-----------------------|
E|------3-----------5-------5--------------7-----------------------|
      broken beaten down / can't even get around....

>intro
>verse
>pre-chorus

chorus
e|----------------------------0----------2-------------------------|
B|----------------------------1----------3-------------------------|
G|----------------------------0----------2-------------------------|
D|----------------------------2------------------------------------|
A|----------------------------3------------------------------------|
E|----------------------------0------------------------------------|
      and I don't wanna be an old man anymore

e|----------------------------------3----------------0-------------|
B|----------------------------------2----------------0-------------|
G|----------------------------------0----------------0-------------|
D|----------------------------------0----------------2-------------|
A|----------------------------------2----------------2-------------|
E|----------------------------------3----------------0-------------|
      it's been a year or two since I was out on the floor

e|--------------------------0-----------------2--------------------|
B|--------------------------1-----------------3--------------------|
G|--------------------------2-----------------2--------------------|
D|--------------------------2--------------------------------------|
A|-----------------------------------------------------------------|
E|-----------------------------------------------------------------|
      shakin' booty makin' sweet love all the night

e|--------------------3----------------0---------------------------|
B|--------------------3----------------0---------------------------|
G|--------------------0----------------0---------------------------|
D|--------------------0----------------2---------------------------|
A|--------------------2----------------2---------------------------|
E|--------------------3----------------0---------------------------|
      it's time I got back to the good life

e|-------------------------------------------2---------------------|
B|--------------------1----------------------3---------------------|
G|-------------------------------------------2---------------------|
D|--------------------2--------------------------------------------|
A|-----------------------------------------------------------------|
E|-----------------------------------------------------------------|
      it's time I got back / it's time I got back

[ Tab from: http://www.guitartabs.cc/tabs/w/weezer/the_good_life_tab_ver_3.html ]
e|---------------------3----------------------0--------------------|
B|---------------------3----------------------0--------------------|
G|---------------------0----------------------0--------------------|
D|---------------------0----------------------2--------------------|
A|---------------------2----------------------2--------------------|
E|---------------------3----------------------0--------------------|
      and I don't even know how I got off the track

e|---------------0-----2-------------------------------------------|
B|---------------1-----3-------------1\3------/--------------------|
G|---------------2-----2-------------3\5---- / listen for         -|
D|---------------2-------------------2\4-----\__strumming pattern -|
A|-----------------------------------------------------------------|
E|-----------------------------------------------------------------|
      I wanna go back, yeah         (fill)

>intro
>verse
>pre-chorus
>chorus

solo:
fast...
Eb------------------------------12-11-9---------------------------------|
Bb-------8-8-9-10-9-8-------------------12-10/9-7h9--9-9-9--------------|
Gb--9b------------------9--9-9------------------------------8---6-6-6---|
Db----------------------------------------------------------------------|
Ab----------------------------------------------------------------------|
Eb----------------------------------------------------------------------|


Eb---------11-11-9-----16-16-14---------16-14------------------14-------|
Bb--9-9-7--------------------------------------17-15--------------------|
Gb----------------------------------------------------17-15-13----------|
Db----------------------------------------------------------------------|
Ab----------------------------------------------------------------------|
Eb----------------------------------------------------------------------|

then slow...
Eb-------------------10--------------------------------|
Bb--5s19---17s12---10----12--12h13-12-10-8-------------|
Gb-----------------------------------------------------|
Db-----------------------------------------------------|
Ab-----------------------------------------------------|
Eb-----------------------------------------------------|

Eb---------------------------------------0-------------|
Bb----8-10---12---12-10-8----10-8-7-3----3-------------|
Gb---------------9----------7------------0-------------|
Db---------------------------------------2-------------|
Ab---------------------------------------2-------------|
Eb---------------------------------------0-------------|

Bridge
e|---------------------------------2-------------------|
B|---------------1-----------------3-------------------|
G|---------------------------------2-------------------|
D|---------------2-------------------------------------|
A|-----------------------------------------------------|
E|-----------------------------------------------------|
      I wanna go back / I wanna go back (strum slowly and pick up speed)


e|---------------------3----------------------0--------|
B|---------------------3----------------------0--------|
G|---------------------0----------------------0--------|
D|---------------------0----------------------2--------|
A|---------------------2----------------------2--------|
E|---------------------3----------------------0--------|
      and I don't even know how I got off the track

e|---------------0-----2-------------------------------|
B|---------------1-----3-------------------------------|
G|---------------2-----2-------------------------------|
D|---------------2-------------------------------------|
A|-----------------------------------------------------|
E|-----------------------------------------------------|
      I wanna go back, yeah

>chorus

outro
e|----0--------------------------------0-0-0-0-0-0--0--|
B|----0--------------------------------0-0-0-0-0-0--0--|
G|----0--------------------------------1-1-1-1-1-1--1--|
D|----2--------------------------------2-2-2-2-2-2--2--|
A|----2--------------------------------2-2-2-2-2-2--2--|
E|----0--------------------------------0-0-0-0-0-0--0--|
      I wanna go back(I wanna go back)

ORDER:
Intro
Verse
Pre-chorus
Intro
Verse
Pre-chorus
Chorus
Intro
Verse
Pre-chorus
Chorus
Solo
Bridge
Chorus
Outro
Comments