Weezer - The Good Life Chords & Tabs

 

The Good Life Chords & Tabs

Weezer Chords & Tabs

Version: 2 Type: Tab 0 ratings
1 star 2 stars 3 stars 4 stars 5 stars
comments

The Good Life Tab

   
Weezer, The Good Life by Rivers Cuomo =w=

Intro
e|---------------------------|
B|---------------------------|
G|---------------------------|
D|---------------------------|
A|-5--5-5--2-2---5--5-5--2-2-|
E|-3--3-3--0-0---3--3-3--0-0-|
   G5      E5    G5      E5

Verse
e|---------------------------------|
B|---------------------------------|
G|---------------------------------|
D|--------7-7-7-7------------------|
A|-5-5-5--5-5-5-5-7-7-7-7--2-2-2-2-|
E|-3-3-3----------5-5-5-5--0-0-0-0-|
   G5      D5      A5       E5

e|-------------------------|--------------|
B|-------------------------|--------------|
G|-------------------------|--------------|
D|-------7--7--------------|--2-2-2-2-2-2-|
A|-5--5--5--5--7--7--2--2--|--4-4-4-4-4-4-|
E|-3--3--------5--5--0--0--|--------------|
   G5     D5    A5    E5        B5

Yeah the think is here you play the first part over the "When i look in the mirror can't 
whay i see..." part and then play the second part over the "Broken beaten down can't
get around..." part. The two parts are the same, but the speed is slowed down. The B5
is played inbetween the verse and chorus "...nobody but meeeee"
[ Tab from: http://www.guitartabs.cc/tabs/w/weezer/the_good_life_tab_ver_2.html ]
Chorus
e|---------------------------------------------------|
B|---------------------------------------------------|
G|---------------------------------------------------|
D|--2-2-2-2-2--3-3-3-3-3--5-5-5-5-5------------------|
A|--4-4-4-4-4--5-5-5-5-5--7-7-7-7-7-5-5-5-5--2-2-2-2-|
E|----------------------------------3-3-3-3--0-0-0-0-|
    B5          C5          D5       G5       E5

That B5 is sort of carried over from the verse...just listen to the song you'll 
You play that once than go into:
e|------------------------------------|
B|------------------------------------|
G|------------------------------------|
D|-----------7-7-7-7------------------|
A|--7-7-7-7--5-5-5-5-5-5-5-5--2-2-2-2-|
E|--5-5-5-5----------3-3-3-3--0-0-0-0-|
     A5       D5      G5       E5

This plays through the second half of the verse and the "Its time i got back its time i
back" bit...so yeah repeat that for the next verse and chorus then play this (For the
part of the solo i just play the chorus...its the same timing and I don't have the
technical ability to play, let alone tab it.

Solo
Why the hell has no-one got an idea how to play this? You're all fools.

e|--------------------10-------------------------------------|
B|-5/19---17---12--10----12-12-12-13-13-12--10--8--8--10--12-|
G|-----------------------------------------------------------|
D|-----------------------------------------------------------|
A|-----------------------------------------------------------|
E|-----------------------------------------------------------|

e|-----------------------------------|
B|-----12--10--8---10---8--7-------3-|
G|---9-----------7-------------------|
D|-----------------------------------|
A|-----------------------------------|
E|-----------------------------------|

Then play the second part of the chorus palm muted and then the end of the song. Badda 
badda boom. This is my favourite Weezer song...its nice and easy to play and theres room 
improvisation on the solo and bridge.
Any questions etc whiskerbiscuit@hotmail.co.uk
Comments