Weezer - Sweater Song Chords & Tabs

 

Sweater Song Chords & Tabs

Weezer Chords & Tabs

Version: 3 Type: Tab 0 ratings
1 star 2 stars 3 stars 4 stars 5 stars
comments

Sweater Song Tab

   
intro/verse
e|----------------------------------| Repeat however many times....
B|-------0-------0-------0-------0--|
G|-----3-------3-------5-------3----|
D|---2-------2-------4-------2------|                                      
A|---------3-------5-------3--------|
E|-3--------------------------------|

Played clean twice before dist. kicks in...
e|-3-3-3-3---0-0-0-0---2-2-2-2---0-0-0-0---|
B|-3-3-3-3---1-1-1-1---3-3-3-3---1-1-1-1---|
G|-0-0-0-0---0-0-0-0---2-2-2-2---0-0-0-0---|
D|-0-0-0-0---2-2-2-2---0-0-0-0---2-2-2-2---|
A|-2-2-2-2---3-3-3-3-------------3-3-3-3---|
E|-3-3-3-3---------------------------------|
     G          C         D         C
[ Tab from: http://www.guitartabs.cc/tabs/w/weezer/sweater_song_tab_ver_3.html ]
Played when distortion kicks in....
e|-3-3-3-3---3-3-3-3---5-5-5-5---3-3-3-3-| these are virtually the same 
B|-3-3-3-3---3-3-3-3---5-5-5-5---3-3-3-3-| chords as before but the bar-
G|-4-4-4-4---5-5-5-5---7-7-7-7---5-5-5-5-| ring gives it a better tone
D|-5-5-5-5---5-5-5-5---7-7-7-7---5-5-5-5-| with distortion on...
A|-5-5-5-5---3-3-3-3---5-5-5-5---3-3-3-3-|
E|-3-3-3-3---3-3-3-3---5-5-5-5---3-3-3-3-|
Riff almost same at last but is played differently at end later in song
e|-3-3-3-3---3-3-3-3---5-5-5-5---3-3-1-----------|  
B|-3-3-3-3---3-3-3-3---5-5-5-5---3-3-1-----------| 
G|-4-4-4-4---5-5-5-5---7-7-7-7---5-5-3-----------| 
D|-5-5-5-5---5-5-5-5---7-7-7-7---5-5-3-0---------| 
A|-5-5-5-5---3-3-3-3---5-5-5-5---3-3-1-0---------|
E|-3-3-3-3---3-3-3-3---5-5-5-5---3-3-1-0---------|


thats the main song the strumming gets faster at the end... i couldnt get the solos
Comments