Weezer - Surf Wax America Chords & Tabs

 

Surf Wax America Chords & Tabs

Weezer Chords & Tabs

Version: 4 Type: Tab 0 ratings
1 star 2 stars 3 stars 4 stars 5 stars
comments

Surf Wax America Tab

   
Weezer - Surf Wax America

Tabbed by:*Truly Ninja*
Email:trulyninja@hotmail.com

Tuning:Down 1/2 step (Eb Ab Db Gb Bb Eb)

Acoustic intro:
   Dadd4        C           G
e|---------------------------------------------------------------------------|
B|-----3-----------1--------------------0------------------------------------|
G|--------0-----------0-----------0--------0---------------------------------|
D|--4--------0--2--------------0--------------0------------------------------|
A|-----------------------3--2------------------------------------------------|
E|-----------------------------------3---------------------------------------|

Verse:
e|---------------------------------------------------------------------------|
B|---------------------------------------------------------------------------|
G|---------------------------------------------------------------------------|
D|--4--4--4--4---2--2--2--2---5----------------------------------------------|
A|--5--5--5--5---3--3--3--3---5-(x8)-----------------------------------------|
E|--5--5--5--5---3--3--3--3---3----------------------------------------------|
[ Tab from: http://www.guitartabs.cc/tabs/w/weezer/surf_wax_america_tab_ver_4.html ]
Chorus:
e|---------------------------------------------------------------------------|
B|---------------------------------------------------------------------------|
G|---------------------------------------------------------------------------|
D|---------------------------------------------------------------------------|
A|--7------5------7------5---------------------------------------------------|
E|--8-(x8)-3-(x8)-8-(x8)-3-(x8)----------------------------------------------|

Bridge:
e|---------------------------------------------------------------------------|
B|---------------------------------------------------------------------------|
G|---------------------------------------------------------------------------|
D|-2------5------------2------5----------------------------------------------|
A|-0-(x4)-3-(x4)-5-----0-(x4)-3-(x4)-5---------------------------------------|
E|---------------3-x8)---------------3-(x8)----------------------------------|

Outro:
e|---------------------------------------------------------------------------|
B|---------------------------------------------------------------------------|
G|---------------------------------------------------------------------------|
D|--5------5--5------5--5------5--5------5---5-------------------------------|
A|--3-(x7)-2--5-(x7)-2--3-(x7)-2--5-(x7)-2---5-------------------------------|
E|------------3-------------------3----------3-------------------------------|
Comments