Weezer - Say It Aint So Chords & Tabs

 

Say It Aint So Chords & Tabs

Weezer Chords & Tabs

Version: 9 Type: Tab 0 ratings
1 star 2 stars 3 stars 4 stars 5 stars
comments

Say It Aint So Tab

   
Weezer - Say It Ain't So

Tabbed by:*Truly Ninja*
Email:trulyninja@hotmail.com

Tuning:Down 1/2 Step (Eb Ab Db Gb Bb Eb)
This song sounds fine without the weird tuning, but if you are playing
along with the song you will notice a difference.

Intro:
e|-------4-X-------------------------5-X--0----------------------------------|
B|--4h5--5-X----------------0--------5-X--0----------------------------------|
G|--4----4-X----5---------5-------6--6----1---------9/-----------------------|
D|--4h6---------6-------6---------7-------2---------9/-----------------------|
A|--4-----------6-----6-------6/7---------2----9h11--------------------------|
E|--------------4---4---------------------0--0-------------------------------|

Verse Progression
     C#m  G#       A  E
e|----4---4--4--4--5--0--0--0------------------------------------------------|
B|----5---4--4--4--5--0--0--0------------------------------------------------|
G|----6---5--5--5--6--1--1--1------------------------------------------------|
D|---------------------------------------------------------------------------|
A|---------------------------------------------------------------------------|
E|---------------------------------------------------------------------------|

Little Riff Thingy During the verse:
e|---------------------------------------------------------------------------|
B|------------9------10/12--10--9---------9----------------------------------|
G|-----9-9----9------11/13--11--9h11p9----9--9-------------------------------|
D|-----9-9h11----11--------------------11----9-------------------------------|
A|--11-----------------------------------------------------------------------|
E|---------------------------------------------------------------------------|

Chorus:
e|---------------------------------------------------------------------------|
B|---------------------------------------------------------------------------|
G|--6-6----------------------------------------------------------------------|
D|--6-6--6-6--7-7--2--2--2---------------------------------------------------|
A|--4-4--6-6--7-7--2--2--2---------------------------------------------------|
E|--4-4--4-4--5-5--0--0--0---------------------------------------------------|
[ Tab from: http://www.guitartabs.cc/tabs/w/weezer/say_it_aint_so_tab_ver_9.html ]
Interlude (Before Verse 3)
e|--4----4-X------------------------5---------------7-11-7-9---7-------------|
B|--4h5--5-X--0-----------0---------5------9------7----------9---7h9---7-----|
G|--4----4-X--5---------5--------6--6--X-X-9----8--------------------9---9b--|
D|--4h6-------6-------6----------7-----X-X-9--9------------------------------|
A|--4---------6-----6--------6/7-----------7---------------------------------|
E|------------4---4----------------------------------------------------------|

e|---------------------------------------------------------------------------|
B|---------------------------------------------------------------------------|
G|-8h9-6-6h8-4-6-------------------------------------------------------------|
D|---------------6-----------------------------------------------------------|
A|---------------------------------------------------------------------------|
E|---------------------------------------------------------------------------|

Bridge (Dear Daddy...)
e|---------------------------------------------------------------------------|
B|---------------------------------------------------------------------------|
G|-4-4-4---3-3-3-------------------------------------------------------------|
D|-4-4-4---4-4-4-------------------------------------------------------------|
A|-2-2-2---2-2-2---2--2-2--5-5-5---------------------------------------------|
E|-----------------0--0-0--3-3-3---------------------------------------------|

Solo
e|---------------------------------------------------------------------------|
B|-19b21r19-17------------------------------------19b21r19-17----------------|
G|-------------20---18-20-18-18b20r18-16----------------------20-------------|
D|---------------------------------------18-18v------------------------------|
A|---------------------------------------------------------------------------|
E|---------------------------------------------------------------------------|

e|-----------------------------------------------16--------------------------|
B|--------------------------------------------17----19h21p17/16v-------------|
G|--18-20-18--18b20r10--16-18b20-18b20--16h18--------------------------------|
D|---------------------------------------------------------------------------|
A|---------------------------------------------------------------------------|
E|---------------------------------------------------------------------------|

e|----------16-----------16b17r16-14h16--------------------------------------|
B|-------17----19p17-16------------------------------------------------------|
G|-16h18---------------------------------------------------------------------|
D|---------------------------------------------------------------------------|
A|---------------------------------------------------------------------------|
E|---------------------------------------------------------------------------|
Comments