Weezer - Say It Aint So Chords & Tabs

 

Say It Aint So Chords & Tabs

Weezer Chords & Tabs

Version: 5 Type: Tab 0 ratings
1 star 2 stars 3 stars 4 stars 5 stars
comments

Say It Aint So Tab

   
Weezer - Say It Ain't So.
 Tabbed by Mark Waldron (weezerville@hotmail.com).
  
Tune Down 1/2 Step:
(1)=Eb  (4)=Db
(2)=Bb  (5)=Ab
(3)=Gb  (6)=Eb

                            let ring-------|
|-------4--x--------------------------------|
|-4^5---5--x----0-------------------------0-|
|-4-----4--x----5--------------------5------|
|-4^6-----------6----------------6----------|
|-4-------------6------------6--------------|
|---------------4-------4-------------------|

|----------5--x--x--0-------------------------|
|----------5--x--x--0-------------------------|
|------6---6--------1--------------------9-\\--|
|------7------------2--------------------9-\\--|
|-6^7----------------------------9^11---------|
|---------------------------0-----------------|

                              let ring------|
|-------4--x--x------------------------------|
|-4^5---5--x--x----------------------------0-|
|-4-----4--x--x------------------------5-----|
|-4^6-------------6----------------6---------|
|-4---------------6------------6-------------|
|-------------------------4------------------|

|-----------5---x---(0)---0-|
|-----------5---x---------0-|
|-------6---6-------------1-|
|-------7-----------------2-|
|-6^7---------------------2-|
|-------------------------0-|

|---4---4---4---4---4---5---0---0---0-|
|---5---4---4---4---4---5---0---0---0-|
|---6---5---5---5---5---6---1---1---1-|
|---------------------------2---2---2-|
|-------------------------------------|
|-------------------------------------|

|-------------------------------|--------------------|
|-------------------------------|--------------------|
|-------------------------------|--------------------|
|-------------------------------|--------------------|
|----------4--------------------|--------------------|
|---------------------4---------|-5----------0-------|

|--------------------------------------------------|
|-------------------9---------------10-/-12-----10-|
|--------9---9------9---------------11-/-13-----11-|
|--------9---9^11--------------11------------------|
|-11-----------------------------------------------|
|--------------------------------------------------|

|----------------------|
|-9-------------9------|
|-9^11^9--------9----9-|
|----------11--------9-|
|----------------------|
|----------------------|

**fdbk.---------------| dist.
|----------------------|------------------|
|----------------------|------------------|
|----------------------|------------------|
|-------6--------------|-6---6------------|
|-------4--------------|-4---4------6---6-|
|----------------------|------------4---4-|

|------------------------|
|------------------------|
|------------------------|
|------------------------|
|-7---7--------2---------|
|-5---5--------0---------|

                                let ring-----|
|--------4---x--------------------------------|
|-4^5----5---x-----0------------------------0-|
|-4------4---x-----5--------------------5-----|
|-4^6--------------6----------------6---------|
|-4----------------6------------6-------------|
|------------------4-------4------------------|

|-----------5--------------|
|-----------5------------9-|
|-------6---6----x---x---9-|
|-------7--------x---x---9-|
|-6^7--------------------7-|
|--------------------------|
                                            full
|----------7--11--7--9-----7-----------------/-\\----|
|-------7---------------9-----7^9-----7-----/---\\---|
|----8-----------------------------9-----9-/----(9)-|
|-9-------------------------------------------------|
|---------------------------------------------------|
|---------------------------------------------------|

|-------------------------------------|
|-------------------------------------|
|-8^9---6-----6^8---4---6-------------|
|---------------------------6---------|
|-------------------------------------|
|-------------------------------------|

|----------------------|
|----------------------|
|----------------------|
|--6-----------2-------|
|--4-----6-----0-----2-|
|--------4-----------0-|
[ Tab from: http://www.guitartabs.cc/tabs/w/weezer/say_it_aint_so_tab_ver_5.html ]
         1/2 1/2              1/2 1/2
|-----0--/-\\--/------------0--/-\\--/---|
|-----4-/--(4)-------------4-/--(4)----|
|--------------------------------------|
|--------------------------------------|
|--------------------------------------|
|--------------------------------------|

|----------------------------------------------------|
|----------------------------------------------------|
|-6---6---6---6---5---5---5---5---6---6---6----------|
|-6---6---6---6---x---x---x---x---x---x---x----------|
|-4---4---4---4---6---6---6---6---7---7---7---2------|
|-----------------4---4---4---4---------------0------|

|----------------------------------|
|----------------------------------|
|-4---4----------4---3---3-----3---|
|-4---4----------4---4---4-----4---|
|-2---2----------2---2---2-----2---|
|----------------------------------|

|---------------------------|
|---------------------------|
|---------------------------|
|---------------------------|
|-2---2-----2---5---5-----5-|
|-0---0-----0---3---3-----3-|

|-------------------------------|
|-------------------------------|
|-------------------------------|
|-9---9---9-----9---8---8-----8-|
|-9---9---9-----9---9---9-----9-|
|-7---7---7-----7---7---7-----7-|

|---------------------------|
|---------------------------|
|---------------------------|
|---------------------------|
|-2---2-----2---5---5-----5-|
|-0---0-----0---3---3-----3-|

     full
|-----/-\\-----------------------------------|
|-19-/-(19)---17----------------------------|
|------------------20----------18---20---18-|
|-------------------------------------------|
|-------------------------------------------|
|-------------------------------------------|

      full              full     full
|------/-\\---------------/--------/---|
|-----/---\\-------------/--------/----|
|-18-/---(18)---16--18-/-----18-/-----|
|-------------------------------------|
|-------------------------------------|
|-------------------------------------|

|------------16----------------------------------|
|--------17-------19^21^17^16--(16)~~~~~~~~~~~~~~|
|-16^18------------------------------------------|
|------------------------------------------------|
|------------------------------------------------|
|------------------------------------------------|


|------------16--------------|
|--------17-------19^17--16--|
|-16^18----------------------|
|----------------------------|
|----------------------------|
|----------------------------|
                                       
|------------16--------------|
|--------17-------19^17--16--|
|-16^18----------------------|
|----------------------------|
|----------------------------|
|----------------------------|

     1/2
      /\\                  **fdbk-----|
|-16-/(16)---14^16---12---------------|
|-------------------------------------|
|-------------------------------------|
|-------------------------------------|
|-------------------------------------|
|-------------------------------------|

                               let ring-----|
|---------4---x------------------------------|
|-4^5-----5---x---0------------------------0-|
|-4-------4---x---5--------------------5-----|
|-4^6-------------6----------------6---------|
|-4---------------6------------6-------------|
|-----------------4-------4------------------|

|-----------5---0---------------------|
|-----------5---0---------------------|
|-------6---6---1----------------9-\\--|
|-------7-------2----------------9-\\--|
|-6^7---------------------9^11--------|
|-------------------0-----------------|

                            let ring-----|
|-------4--x------------------------------|
|-4-----5--x---0------------------------0-|
|-4^5---4--x---5--------------------5-----|
|-4------------6----------------6---------|
|-4^6----------6------------6-------------|
|--------------4-------4------------------|

|-----------5---x---x---0----------|
|-----------5---x---x---0----------|
|-------6---6---x---x---1----------|
|-------7---------------2----------|
|-6^7------------------------------|
|----------------------------------| 
:: Ultimate Guitar Archive :: 
http://www.ultimate-guitar.com 



Comments