Weezer - Say It Aint So Chords & Tabs

 

Say It Aint So Chords & Tabs

Weezer Chords & Tabs

Version: 4 Type: Tab 0 ratings
1 star 2 stars 3 stars 4 stars 5 stars
comments

Say It Aint So Tab

   
Say it aint so (acoustic)
Weezer
guitars tune down 1/2 step (low to high:  Eb, Ab, Db, Gb, Bb, Eb)
slow rock   /   Tablature by Phil Martel

rhythm fig. 1
Eb----------4------------------------|-----------5--------(0)----------------|
Bb----4h5---5--x---0-------------0---|-----------5--x--x---0-----------------|
Gb----4-----4--x---5-----------5-----|--------6--6--x--x---1--------------9\-|
Db----4h6------x---6---------6-------|--6/7---7-----x--x---2--------------9\-|
Ab----4------------6-------6---------|--6/7-------------------------9h11-----|
Eb-----------------4-----4-----------|--------------------------0------------|

Eb----------4------------------------|------------5-----0---0----------------|
Bb----4h5---5--x-x----------------0--|------------5--x--x---0----------------|
Gb----4-----4--x-x--5-----------5----|---------6--6--x------1----------------|
Db----4h6------x-x--6---------6------|---6/7---7-----x------2----------------|
Ab----4-------------6-------6--------|---6/7---------------------------------|
Eb------------------4-----4----------|---------------------------------------|

Guitar2 (clean)
rhythm fig. 2
Eb----4--------4--------4--------4---|-----5-------4-------4-------4------|
Bb----5--------4--------4--------4---|-----5-------5-------5-------5------|
Gb----6--------5--------5--------5---|-----6-------4-------4-------4------|
Db-----------------------------------|------------------------------------|
Ab-----------------------------------|------------------------------------|
Eb-----------------------------------|------------------------------------|

Eb----4--------4--------4--------4---|-----5-------4-------|
Bb----5--------4--------4--------4---|-----5-------5-------|
Gb----6--------5--------5--------5---|-----6-------4-------|
Db-----------------------------------|---------------------|
Ab-----------------------------------|---------------------|
Eb-----------------------------------|---------------------|

1st Chorus
Eb-----------------------------|-----------------------------|------------------------|
Bb-----------------------------|-----------------------------|------------------------|
Gb-------6--6------------------|-----------------------------|--6--6------------------|
Db-------6--6-------6--6-------|-7--7-------2-------2--2--2--|--6--6-------6--6-------|
Ab-------4--4-------6--6-------|-7--7-------2-------2--2--2--|--4--4-------6--6-------|
Eb------------------4--4-------|-5--5-------0-------0--0--0--|--4--4-------4--4-------|

Eb-----------------------------|
Bb-----------------------------|
Gb-----------------------------|
Db-7--7-------2-------2--2--2--|
Ab-7--7-------2-------2--2--2--|
Eb-5--5-------0-------0--0--0--|


Eb-----------------------------|-----------------------------|------------------------|
Bb-----------------------------|-----------------------------|------------------------|
Gb-------6--6------------------|-----------------------------|--6--6------------------|
Db-------6--6-------6--6-------|-7--7-------2-------2--2--2--|--6--6-------6--6-------|
Ab-------4--4-------6--6-------|-7--7-------2-------2--2--2--|--4--4-------6--6-------|
Eb-------4--4-------4--4-------|-5--5-------0-------0--0--0--|--4--4-------4--4-------|

Eb-----------------------------|
Bb-----------------------------|
Gb-----------------------------|
Db-7--7-------2----------------|
Ab-7--7-------2----------------|
Eb-5--5-------0----------------|

2nd/3rd Chorus
/\/\= full bend
[ Tab from: http://www.guitartabs.cc/tabs/w/weezer/say_it_aint_so_tab_ver_4.html ]
Eb-----------------------------|-----------------------------|------------------------|
Bb-------------5----------5----|-----------------------------|--------5----------5----|
Gb-------6--6--7/\/\------7/\/\|-----------------------------|--6--6--7/\/\------7/\/\|
Db-------6--6-------6--6-------|-7--7-------2-------2--2--2--|--6--6-------6--6-------|
Ab-------4--4-------6--6-------|-7--7-------2-------2--2--2--|--4--4-------6--6-------|
Eb------------------4--4-------|-5--5-------0-------0--0--0--|--4--4-------4--4-------|

Eb-----------------------------|
Bb-----------------------------|
Gb-----------------------------|
Db-7--7-------2-------2--2--2--|        2 times
Ab-7--7-------2-------2--2--2--|
Eb-5--5-------0-------0--0--0--|


Eb-----------------------------|-----------------------------|------------------------|
Bb-------------5----------5----|-----------------------------|--------5----------5----|
Gb-------6--6--7/\/\------7/\/\|-----------------------------|--6--6--7/\/\------7/\/\|
Db-------6--6-------6--6-------|-7--7-------2-------2--2--2--|--6--6-------6--6-------|
Ab-------4--4-------6--6-------|-7--7-------2-------2--2--2--|--4--4-------6--6-------|
Eb------------------4--4-------|-5--5-------0-------0--0--0--|--4--4-------4--4-------|

Eb-----------------------------|
Bb-----------------------------|
Gb-----------------------------|
Db--7--7------2------2------2--|
Ab--7--7------2------2------2--|
Eb--5--5------0------0------0--|





Solo - Play Rhythm fig. 4
Guitar Solo
Eb------------------------------------------|-----------------------------|
Bb-----19/\(19)--17---16vvvvvvv------16-----|-----------------------------|
Gb-------------------------------18------18-|-18/\(18)--16----------------|
Db------------------------------------------|------------------18vvvvvvv--|
Ab------------------------------------------|-----------------------------|
Eb------------------------------------------|-----------------------------|

Eb------------------------------------------|----------------------------------|
Bb--19/\(19)--17--16vvvvvvv------16---------|----------------------------------|
Gb---------------------------18------18-----|---18/\(18)-----16--18/vvv--18/---|
Db------------------------------------------|----------------------------------|
Ab------------------------------------------|----------------------------------|
Eb------------------------------------------|----------------------------------|

Eb-------------16--14h16p14------------------------|
Bb---------17---------------17--16vvvvvvvvv16vvvvvv|
Gb--16s18------------------------------------------|
Db-------------------------------------------------|
Ab-------------------------------------------------|
Eb-------------------------------------------------|

Eb-------------16------------------16/\(16)------16-|-------------------------------------|
Bb---------17------19p17--16vvvvv------------19-----|-------------------------------------|
Gb--16s18-------------------------------------------|-------------------------------------|
Db--------------------------------------------------|-------------------------------------|
Ab--------------------------------------------------|-------------------------------------|
Eb--------------------------------------------------|-------------------------------------|
                                                                        
Eb----------------------16-------------|--------------16/\(16)--16-------|
Bb-----------17------19p17--16vvv|vvvvvvvvvvvv----------- 19-----|
Gb-----------16/18-------------------|--------------------------------------|
Db--------------------------------------|--------------------------------------|
Ab--------------------------------------|--------------------------------------|
Eb--------------------------------------|--------------------------------------|

Eb--------------------------------------|
Bb--------------------------------------|
Gb-----2----2----2--------------------|
Db-----2----2----2----2--------------|
Ab-----0----0----0----2--------------|
Eb--------------------0----------------|

Rhy. Fig. 4
Eb---------------------------|--------0-----0--0--0--|
Bb---------------------------|--------0-----0--0--0--|
Gb--6-------5-------5-----5--|--6-----1-----1--1--1--|
Db--6-------6-------6-----6--|--7-----2-----2--2--2--|
Ab--4-------6-------6-----6--|--7-----2-----2--2--2--|
Eb--4-------4-------4-----4--|--5-----0-----0--0--0--|




Comments