Weezer - Say It Aint So Chords & Tabs

 

Say It Aint So Chords & Tabs

Weezer Chords & Tabs

Version: 6 Type: Bass Tab 0 ratings
1 star 2 stars 3 stars 4 stars 5 stars
comments

Say It Aint So Bass Tab

-----------------------------------------------------------------------------
			     Say It Ain't So - Weezer
-----------------------------------------------------------------------------

Tuning:1/2 Step Down

Intro/Verse
G|------------------------------|
D|------------------------------|
A|-4--------------------------2-|
E|------4----2-2-4-5--0--0-4----|

Chorus
G|------------------------------|
D|------------------------------|
A|-4-4--------------------------|
E|---------4-4---5-5----0-0-----|
[ Tab from: http://www.guitartabs.cc/tabs/w/weezer/say_it_aint_so_btab_ver_6.html ]
Bridge(Dear daddy, I write you...)
G|------------------------------------|
D|------------------------------------|
A|-2-2--2-1-1--1----------------------|
E|------------------0-0--0-3-3--3-----|

The fill in the bridge
G|----------------------------------|
D|----------------------------------|
A|-2-2--2-1-------------------------|
E|------------2-0--0-0--0-3-3--3----|

The fill in the last chorus
G|-----------------------------------|
D|-------------------------7---------|
A|-4-4-----------------------7-5-4---|
E|---------4-4---5-5---0-------------|
Comments