Weezer - Say It Aint So Chords & Tabs

 

Say It Aint So Chords & Tabs

Weezer Chords & Tabs

Version: 4 Type: Bass Tab 0 ratings
1 star 2 stars 3 stars 4 stars 5 stars
comments

Say It Aint So Bass Tab

Tabbed By : Adriana
e-mail: adiofan87@yahoo.com

Semi-correct version of this song.
It's sounds good. Play along w/ song.
If you like it, find another version or make your own.
Tuning:standard

G|---------------------------------------------------------------------------
D|--------456----------------------------------------------------------------
A|--4-4----------------------------------------------------------------------
E|------4--------55-0--------------------------------------------------------

G|---------------------------------------------------------------------------
D|--------456----------------------------------------------------------------
A|--4-4----------------------------------------------------------------------
E|------4--------55-0--------------------------------------------------------


G|---------------------------------------------------------------------------
D|---------------------------------------------------------------------------
A|----4-4--------0-0---------------------------------------------------------
E|---------4-4-------0-0-0-0-------------------------------------------------

G|---------------------------------------------------------------------------
D|---------------------------------------------------------------------------
A|----4-4--------0-0---------------------------------------------------------
E|---------4-4--------0-0-0-0------------------------------------------------

G|---------------------------------------------------------------------------
D|--------456----------------------------------------------------------------
A|--4-4----------------------------------------------------------------------
E|------4--------55-0--------------------------------------------------------


G|---------------------------------------------------------------------------
D|--------456----------------------------------------------------------------
A|--4-4----------------------------------------------------------------------
E|------4--------55-0--------------------------------------------------------

[ Tab from: http://www.guitartabs.cc/tabs/w/weezer/say_it_aint_so_btab_ver_4.html ]
G|---------------------------------------------------------------------------
D|---------------------------------------------------------------------------
A|----4-4--------0-0---------------------------------------------------------
E|---------4-4--------0-0-0-0------------------------------------------------

G|---------------------------------------------------------------------------
D|---------------------------------------------------------------------------
A|----4-4--------0-0---------------------------------------------------------
E|---------4-4------0-0-0-0--------------------------------------------------

G|---------------------------------------------------------------------------
D|---------------------------------------------------------------------------
A|-2-2-2-1-1-1---------------------------------------------------------------
E|-------------0-0-0-3-3-3---------------------------------------------------

G|---------------------------------------------------------------------------
D|---------------------------------------------------------------------------
A|-2-2-2-1-1-1---------------------------------------------------------------
E|-------------0-0-0-3-3-3-3-3-3-3-------------------------------------------

G|---------------------------------------------------------------------------
D|---------------------------------------------------------------------------
A|----4-4----------0-0-------------------------------------------------------
E|---------4-4-4-4-----0-0-0-0-----------------------------------------------

G|---------------------------------------------------------------------------
D|---------------------------------------------------------------------------
A|----4-4--------0-0---------------------------------------------------------
E|---------4-4------0-0-0-0--------------------------------------------------

G|---------------------------------------------------------------------------
D|---------------------------------------------------------------------------
A|----4-4--------0-0---------------------------------------------------------
E|---------4-4------0--------------------------------------------------------
Comments