Weezer - Say It Aint So Chords & Tabs

 

Say It Aint So Chords & Tabs

Weezer Chords & Tabs

Version: 2 Type: Bass Tab 0 ratings
1 star 2 stars 3 stars 4 stars 5 stars
comments

Say It Aint So Bass Tab

   
#----------------------------------PLEASE NOTE---------------------------------#
#This file is the author's own work and represents their interpretation of the #
#song. You may only use this file for private study, scholarship, or research. #
#------------------------------------------------------------------------------##
From: bu295@FreeNet.Carleton.CA (Chris Mallalieu)

Bass Tab
Say it ain't so - Weezer

Watch the tuning here, it's weird, drop d#, instead of drop d.
(G, D, A, D#, high to low.)

At the beginning during just the first verses:

G----------------------------------------------- \
D--------3-3-5--------------------3-3-5---------  |- Repeat many times
A--3-3--------------------1-3-3-----------------  |    until chorus
D#-----4-------5-5-0--0-4-------4-------5-5-0--- /

Chorus:
[ Tab from: http://www.guitartabs.cc/tabs/w/weezer/say_it_aint_so_btab_ver_2.html ]
G-------------------------------------------------
D------------------------------------------------- Repeat once for 
A--3-3------------------1-3-3---------------------    chorus
D#-----4-4--5-5--0--0-4--------4-4--5-5-0---------

Later, the bridge kicks in

G----------------------------------------------------------- Repeat once
D-----------------------------------------------------------  throw in 
A--1-1--1---------------------1-1--1---8-6-5---------------- 8-6-5 when u
D#--------5-5--5-0-0-0-3-3--3--------5-------0-0--0-3-3--3--  feel like it

During the final chorus, they do a funky thing again:

G---------------------------------------------------  Repeat, do the 
D---------------------6-----------------------------   turn whenever
A--3-3------------------6-5-3-3---------------------   you feel like it
D#------4-4--5-5--0-0------------4-4--5-5--0--------

Ok, there it is.  The bass wasn't too hard, but I don't play guitar
and I need it, so could someone do it and post?

Chris - bu295@freenet.carleton.ca


--
Chris Mallalieu  (bu295@freenet.carleton.ca)

Comments