Weezer - Photograph Chords & Tabs

 

Photograph Chords & Tabs

Weezer Chords & Tabs

Version: 4 Type: Tab 0 ratings
1 star 2 stars 3 stars 4 stars 5 stars
comments

Photograph Tab

-------------------------------------------------------------------------------
			     PHOTOGRAPH - Weezer
-------------------------------------------------------------------------------

Tabbed by:FLUSHING NEMO
Email:flsuhingnemo@hotmail.com

Tuning: EADGBe

Verse:

e|-----------------------------------------|
B|-----------------------------------------|
G|----------------7------9------11---------|
D|--7------4------7------9------11---------|
A|--7-(x8)-4-(x8)-5-(x4)-7-(x4)-9--(x8)----|
E|--5------2------5------7------9----------|

Pre-Chorus
[ Tab from: http://www.guitartabs.cc/tabs/w/weezer/photograph_tab_ver_4.html ]
e|--------------------------------------------------------------------|
B|--------------------------------------------------------------------|
G|--7------9----------------7------9------6-------------2-------------|
D|--7------9------7---------7------9------6------4------2------2------|
A|--5-(x4)-7-(x4)-7-(x8)----5-(x4)-7-(x4)-4-(x4)-4-(x4)-0-(x8)-2-(x8)-|
E|--5------7------5---------5------7-------------2-------------0------|
  Play this Twice ^.......then play this^

Chorus

e|------------------------I-------------------|
B|------------------------I-------------------|
G|---6--------------------I-7------9----------|
D|---6------4------7------I-7------9----------|
A|---4-(x8)-4-(x3)-7-(x5)-I-5-(x8)-7-(x8)-----|
E|---4------2------5------I-5------7----------|
Play this 3x^..............then play this^

Solo:

e|--------------------------------------------------------------------|
B|--------------------------------------------------------------------|
G|--6--------------6--------------6-----------------------------------|
D|------7-7-7-7-7------7-7-7-7-7-------7-7-9-11-11-9-9-9-9-7-7-9-7----|
A|----7--------------7---------------7--------------------------------|
E|--------------------------------------------------------------------|

Order:
Verse
Pre-Chorus
Verse
Pre-Chorus
Chorus
Solo
Verse
Pre-Chorus
Chours
Verse
Pre-Chorus (minus end riff)

THATS IT! GOOD SONG!
Comments