Weezer - Peace Chords & Tabs

 

Peace Chords & Tabs

Weezer Chords & Tabs

Version: 3 Type: Tab 0 ratings
1 star 2 stars 3 stars 4 stars 5 stars
comments

Peace Tab

   
Song: Peace
Band: Weezer
Album: Make Believe
Tabbed by: Alex Harford (Kick Me)
Email: rage_machine1516@yahoo.com

Tuning: Standard (e B G D A e)

Intro(00:00) - Guitar 1
e|--6---4---------------------------6---4------------------------------|
B|----6---4-6---4---/4--/4-2----------6---4-6---4---/4-b5r4-2------2---|
G|------------6---3---------------------------6---3------------3\1-----|
D|---------------------------------------------------------------------|
A|---------------------------------------------------------------------|
E|---------------------------------------------------------------------|
 |
 |Guitar 2
e|---------------------6--66-6-6-6---------------------6--66-6-6-6-----|
B|-----6--66-6-6-6-----6--66-6-6-6-----6--66-6-6-6-----6--66-6-6-6-----|
G|--6--6--66-6-6-6-----6--66-6-6-6--6--6--66-6-6-6-----6--66-6-6-6-----|
D|--6--6--66-6-6-6--8--8--88-8-8-8--6--6--66-6-6-6--8--8--88-8-8-8-----|
A|--4--4--44-4-4-4--8-8--88-8-8-8--4--4-44-4-4-4--8--8--88-8-8-8-----|
E|------------------6--6--66-6-6-6------------------6--6--66-6-6-6-----|


Verse(00:11)
e|---------------------6--66-6-6-6---------------------6--66-6-6-6-----|
B|-----6--66-6-6-6-----6--66-6-6-6-----6--66-6-6-6-----6--66-6-6-6-----|
G|--6--6--66-6-6-6-----6--66-6-6-6--6--6--66-6-6-6-----6--66-6-6-6-----|
D|--6--6--66-6-6-6--8--8--88-8-8-8--6--6--66-6-6-6--8--8--88-8-8-8-----|
A|--4--4--44-4-4-4--8-8--88-8-8-8--4--4-44-4-4-4--8--8--88-8-8-8-----|
E|------------------6--6--66-6-6-6------------------6--6--66-6-6-6-----|

e|---------------------6--66-6-6-6-------------------------------------|
B|-----6--66-6-6-6-----6--66-6-6-6-----6--66-6-6-6---------------------|
G|--6--6--66-6-6-6-----6--66-6-6-6--6--6--66-6-6-6--6------------------|
D|--6--6--66-6-6-6--8--8--88-8-8-8--6--6--66-6-6-6--8------------------|
A|--4--4--44-4-4-4--8-8--88-8-8-8--4--4-44-4-4-4--8------------------|
E|------------------6--6--66-6-6-6------------------6------------------|


Chorus - Guitar 1(00:37)        Repeat x3
e||---6---4----------------------------||
B||o----6---4-6---4---/4-b5r4-2-------o||
G||-------------6---3------------------|| Wait for Guitar 2
D||------------------------------------||   to play once.
A||o----------------------------------o||
E||------------------------------------||

Guitar 2(00:31)                 Repeat x4
e||------------------------------------||
B||o----------------------------------o||
G||---6--6--66-6-6-6-------------------||
D||---6--6--66-6-6-6--8--8--88-8-8-8---||
A||o--4--4--44-4-4-4--8--8--88-8-8-8-o||
E||-------------------6--6--66-6-6-6---||

Verse(00:53)
e|---------------------6--66-6-6-6---------------------6--66-6-6-6-----|
B|-----6--66-6-6-6-----6--66-6-6-6-----6--66-6-6-6-----6--66-6-6-6-----|
G|--6--6--66-6-6-6-----6--66-6-6-6--6--6--66-6-6-6-----6--66-6-6-6-----|
D|--6--6--66-6-6-6--8--8--88-8-8-8--6--6--66-6-6-6--8--8--88-8-8-8-----|
A|--4--4--44-4-4-4--8-8--88-8-8-8--4--4-44-4-4-4--8--8--88-8-8-8-----|
E|------------------6--6--66-6-6-6------------------6--6--66-6-6-6-----|

e|---------------------6--66-6-6-6-------------------------------------|
B|-----6--66-6-6-6-----6--66-6-6-6-----6--66-6-6-6---------------------|
G|--6--6--66-6-6-6-----6--66-6-6-6--6--6--66-6-6-6--6------------------|
D|--6--6--66-6-6-6--8--8--88-8-8-8--6--6--66-6-6-6--8------------------|
A|--4--4--44-4-4-4--8-8--88-8-8-8--4--4-44-4-4-4--8------------------|
E|------------------6--6--66-6-6-6------------------6------------------|


Chorus - Guitar 1(01:19)        Repeat x3
e||---6---4----------------------------||
B||o----6---4-6---4---/4-b5r4-2-------o||
G||-------------6---3------------------|| Wait for Guitar 2
D||------------------------------------||   to play once.
A||o----------------------------------o||
E||------------------------------------||

Guitar 2(01:14)                 Repeat x4
e||------------------------------------||
B||o----------------------------------o||
G||---6--6--66-6-6-6-------------------||
D||---6--6--66-6-6-6--8--8--88-8-8-8---||
A||o--4--4--44-4-4-4--8--8--88-8-8-8-o||
E||-------------------6--6--66-6-6-6---||

[ Tab from: http://www.guitartabs.cc/tabs/w/weezer/peace_tab_ver_3.html ]
Bridge(01:35) - Guitar 1
e|---------------------------------------------------------------------|
B|---------------------------------------------------------------------|
G|------------------------6------------------------------------------6-|
D|--4----------6----------6-(x8)-----3-3-3-3--4----------6-----------6-|
A|--4-(x8)-----6-(x8)-----4----------3-3-3-3--4-(x8)-----6-(x8)------4-|
E|--2----------4---------------------1-1-1-1--2----------4-------------|
 |
 |Guitar 2
e|---------------------------------------------------------------------|
B|---------------------------------------------------------------------|
G|--3-3-33-333-5-5-55-555-6-6-66-666----------3-3-33-333-5-5-55-555--6-|
D|--4-4-44-444-6-6-66-666-6-6-66-666-3-3-3-3--4-4-44-444-6-6-66-666--6-|
A|--4-4-44-444-6-6-66-666-4-4-44-444-3-3-3-3--4-4-44-444-6-6-66-666--4-|
E|--2-2-22-222-4-4-44-444------------1-1-1-1--2-2-22-222-4-4-44-444----|


Solo(01:55) - Backing music is the same as the verse.
e|---------------------------------------------------------------------|
B|---------------------------------------------------------------------|
G|----------------------------------------------------6~~--------------|
D|--3b4r3-1-3----------------------------------------------------------|
A|------------4-4-44-4-44-3------------8-8-88-8-88-6-------------------|
E|--------------------------6-66-6-66/---------------------------------|

e|--------------------------------------------------------20h21-------|
B|---------21-------21-------21-------21-------21-------21-------21----|
B|--/17h18----17h18----17h18----17h18----17h18----17h18----------------|
D|---------------------------------------------------------------------|
A|---------------------------------------------------------------------|
E|---------------------------------------------------------------------|

e|---------------------------------------------------------------------|
B|-13-b14r13-----16b18--r16p15p1416b18--r16p15p1416b18--r16p15p14----|
G|-----------15--------------------------------------------------------|
D|---------------------------------------------------------------------|
A|---------------------------------------------------------------------|
E|---------------------------------------------------------------------|

e|---------------------------------------------------------------------|
B|--16b18--r16p15p1416b18r16b18-16-161616-14\13/14~~------------------|
G|---------------------------------------------------------------------|
D|---------------------------------------------------------------------|
A|---------------------------------------------------------------------|
E|---------------------------------------------------------------------|


Chorus - Guitar 1(02:23)        Repeat x3
e||---6---4----------------------------||
B||o----6---4-6---4---/4-b5r4-2-------o||
G||-------------6---3------------------|| Wait for Guitar 2
D||------------------------------------||   to play once.
A||o----------------------------------o||
E||------------------------------------||

Guitar 2(02:17)                 Repeat x4
e||------------------------------------||
B||o----------------------------------o||
G||---6--6--66-6-6-6-------------------||
D||---6--6--66-6-6-6--8--8--88-8-8-8---||
A||o--4--4--44-4-4-4--8--8--88-8-8-8-o||
E||-------------------6--6--66-6-6-6---||

Bridge(02:38) - Guitar 1	         Repeat x3    End with this fourth time.
e||----------------------------------------------||----------------------------|
B||o--------------------------------------------o||----------------------------|
G||-------------------------6--------------------||------------------------6---|
D||---4----------6----------6-(x8)-----3-3-3-3---||--4----------6----------6---|
A||o--4-(x8)-----6-(x8)-----4----------3-3-3-3-o||--4-(x8)-----6-(x8)-----4---|
E||---2----------4---------------------1-1-1-1---||--2----------4--------------|
 |
 |Guitar 2                                Repeat x3   End with this fourth time.
e||----------------------------------------------||----------------------------|
B||o--------------------------------------------o||----------------------------|
G||---3-3-33-333-5-5-55-555-6-6-66-666-----------||--3-3-33-333-5-5-55-555-6---|
D||---4-4-44-444-6-6-66-666-6-6-66-666-3-3-3-3---||--4-4-44-444-6-6-66-666-6---|
A||o--4-4-44-444-6-6-66-666-4-4-44-444-3-3-3-3--o||--4-4-44-444-6-6-66-666-4---|
E||---2-2-22-222-4-4-44-444------------1-1-1-1---||--2-2-22-222-4-4-44-444-----|


Outro(03:20) - Guitar 1                                                     End
e|----------------------------------------------------------------------------|
B|----------------------------------------------------------------------------|
G|------------------------------------------------------------------------6---|
D|--3b4r3-1-3----------------------------------------3b4r3-1-3------------6---|
A|---------------------------------------------4---------------------1----4---|
E|----------------------------------------6-4---------------------------------|
 |
 |Guitar 2(03:21)                      Repeat x4                            End
e||-----------------------------6--66-6-6-6---||---------------------6-------||
B||o------------6--66-6-6-6-----6--66-6-6-6-o||---------------------6-------||
G||----------6--6--66-6-6-6-----6--66-6-6-6---||---------------------6----6--||
D||----------6--6--66-6-6-6--8--8--88-8-8-8---||---------------------8----6--||
A||o---------4--4--44-4-4-4--8-8--88-8-8-8-o||---------------------8----4--||
E||--------------------------6--6--66-6-6-6---||---------------------6-------||


Thanks for checking out my tab, rate and comment if it helped!
Comments