Weezer - Peace Chords & Tabs

 

Peace Chords & Tabs

Weezer Chords & Tabs

Version: 2 Type: Tab 0 ratings
1 star 2 stars 3 stars 4 stars 5 stars
comments

Peace Tab

   
Peace by Weezer 
As played on the album Make Believe

Tabbed by Vincent Slot (vincentslot@gmail.com)

Listen to the song for timing.

INTRO:
Guitar1
e|--------------------------------------|  2x
B|-11----9------------------------------|
G|----10---8-10----8--------------------|
D|--------------11---8-11h13-(11h13)-11-|
A|--------------------------------------|
E|--------------------------------------|

then play this little lick
e|----------|
B|----------|
G|----------|
D|-------11-|
A|-13\11----|
E|----------|


Guitar2
e|-----------------|
B|-----------------|
G|-6-6-6-6---------|
D|-6-6-6-6-8-8-8-8-|
A|-4-4-4-4-8-8-8-8-|
E|---------6-6-6-6-|


VERSE:
Same chords as Intro, but clean this time.


CHORUS:
Again same chords, also played with the intro riff.

VERSE

CHORUS

BRIDGE:
Play 2 times, 2nd time stop after the first C#5.
e|---------------------------------|
B|---------------------------------|
G|-----------------6-6-6-6---------|
D|-4-4-4-4-6-6-6-6-6-6-6-6-3-3-3-3-|
A|-4-4-4-4-6-6-6-6-4-4-4-4-3-3-3-3-|
E|-2-2-2-2-4-4-4-4---------1-1-1-1-|
[ Tab from: http://www.guitartabs.cc/tabs/w/weezer/peace_tab_ver_2.html ]
SOLO:
e|----------------------------------------------------|
B|----------------------------------------------------|
G|------------6-6-6-6-5-3-3-3/10-10-10-10-8-6-6-6//---|
D|----------------------------------------------------|
A|-8-9\8-6/8--4-4-4-4-3-1-1-1/8--8--8--8--6-4---------|
E|----------------------------------------------------|

e|----------|          |----------------|-------------|
B|-------21-|          |----------------|-------------|
G|-18h20----|<- play 7x|-17h18\15-20b22-|-18h20b22r20-|<- play 4x
D|----------|          |----------------|-------------|
A|----------|          |----------------|-------------|
E|----------|          |----------------|-------------|

e|--------------------|
B|--------------------|
G|-20-20\18-17h18-18~-|
D|--------------------|
A|--------------------|
E|--------------------|

CHORUS

BRIDGE:
Play 4 times, 4th time stop after the first C#5, then play A|-8-9\8-6/8-| again.

OUTRO:
Play the clean verse chords while bass plays different notes and guitar2 plays with 

distortion:
e|---------------------------|
B|---------------------------|
G|---------------------------|
D|---------------------------|
A|-----4----8\6/8---------4~-|
E|-6\4---------------6~------|
Comments