Weezer - Paperface Chords & Tabs

 

Paperface Chords & Tabs

Weezer Chords & Tabs

Version: 1 Type: Tab

Paperface Tab

   
Paperface - Weezer

Tuning: Eb

Intro/Verse:

Guitar 1
         A              A7                D
e---------------------------------------------------------------------|
B--2-2-2-2-2-2-2-2--2-2-2-2-2-2-2-2--3-3-3-3-3-3-3-3--3-2-3-2-3-2-2-2-|
G--2-2-2-2-2-2-2-2--1-1-1-1-1-1-1-1--2-2-2-2-2-2-2-2--1-1-1-1-1-1-1-1-|
D--2-2-2-2-2-2-2-2--2-2-2-2-2-2-2-2--0-0-0-0-0-0-0-0--0-0-0-0-0-0-0-0-|
A---------------------------------------------------------------------|
E---------------------------------------------------------------------|

Guitar 2: not played in intro


        A                  A7             D
e----------0---------------0---------------2-----------------------|
B--2-----------2---2-----------2---3---3-------3---3---3---3---3---|
G------2-----2---2-----1-----1---1---2---2---2---2---1---1---1---1-|
D----2---2-----------2---2---------0---------------0---------------|
A--0---------------0-----------------------------------------------|
E------------------------------------------------------------------|

Chorus:
    A   E     F    Bb   A    E    F   Bb
e----------------------------------------------------------|
B----------------------------------------------------------|
G---------9-9-9---------3-3-3---------9-9-9---------3-3-3--|
D--7-7-7--9-9-9--3-3-3--3-3-3--7-7-7--9-9-9--3-3-3--3-3-3--|
A--7-7-7--7-7-7--3-3-3--1-1-1--7-7-7--7-7-7--3-3-3--1-1-1--|
E--5-5-5---------1-1-1---------5-5-5---------1-1-1---------|


Interlude: Only hope to...
[ Tab from: http://www.guitartabs.cc/tabs/w/weezer/paperface_tab.html ]
e---------------------------------------------------------------|
B---------------------------------------------------------------|
G---------------------------------------------------------------|
D--9-9-9-9--9-9-9-9--6-6-6-6--4-4-4-4---------------------------|
A--7-7-7-7--6-6-6-6--4-4-4-4--2-2-2-2--7-7-7-7-7-7--7-7-7-7-7-7-|
E--------------------------------------4-4-4-4-4-4--5-5-5-5-5-5-|

Verse Alt: bluesy picking

Guitar 1:
e------0----0-2p-0---------------------------------0-5h-7p-5-2p-0h-2-2-0-----0-2-0----------|
B-----2----2-------3p-2-2p-0-------2-5-2p0-------2-----------------------3-2-------3/-5-2---|
G----2----1------------------4-2-2----------2--2------------------------------------------4-|
D---2----2----------------------------------------------------------------------------------|
A--0----0-------------------------------------0---------------------------------------------|
E-------------------------------------------------------------------------------------------|

e-----------------------0---0---0-----0-5-2-0--------------------0-------|
B-------------------2-3---3---3---2-2---------2-2-3-2-3-2-2----------2---|
G--4-2h4p2h4p2h4-4b-------------------------------------------2----2---2-|
D-----------------------------------------------------------2---2--------|
A---------------------------------------------------------0--------------|
E------------------------------------------------------------------------|

     (confusing to tab just do trill between 2 and 4 on G)


Guitar 2: 2:09

e--9-9/-10-10\-9-|
B----------------|
G--6-6/-7---7\-6-|
D----------------|
A----------------|
E----------------|

Tabbed  by Rob Kurtz

Send any corrections to bertk12@yahoo.com