Weezer - Only In Dreams Chords & Tabs

 

Only In Dreams Chords & Tabs

Weezer Chords & Tabs

Version: 4 Type: Tab 0 ratings
1 star 2 stars 3 stars 4 stars 5 stars
comments

Only In Dreams Tab

   
Only In Dreams
Weezer
Tuning: Eb
Tabbed by Chris Nieves

Bass Part
G|--------------------------------------------------------------|
D|-----------0h--2-2-2-2-2p0------------------------------------|
A|-2-2-2--------------------------0-0-0-0-0-----5-5---3-3-------|
E|--------------------------------------------------------------|

Acoustic Part
e|--------------------------------------------------|
B|----3-------3--------3----------1---0----1---0----|
G|----0-------0--------2----------0---0----0---0----|
D|----0-------2--------2----------2---2----2---2----|
A|----2-------3--------0----------3---3----3---3----|
E|--------------------------------------------------|

Lead During Verse (repeat  2x)
e|------------------------------------------------|
B|-------------------------------------0----0-----|
G|0-----0-0------0-0------------------------------|
D|----0--------2--------7--5----10---10-----------|
A|------------------------------------------------|
E|------------------------------------------------|

e|------------------------------------------------|
B|-------------------------------------0----0-----|
G|--0----0-0-----0-0------------------------------|
D|------0-------2-------7--5----8----8------------|
A|------------------------------------------------|
E|------------------------------------------------|

Chorus
e|----------------------------------------------|
B|----------------------------------------------|
G|----------------------------------------------|
D|-9-9--7--5-5-5-5-5---10-10-----9--7-7-7-7-7---| 
A|-9-9--7--5-5-5-5-5---10-10-----9--7-7-7-7-7---|
E|-7-7--5--3-3-3-3-3----8--8-----7--5-5-5-5-5---|
   Only  In Dreams       We see what it means

e|-----------------------------------------|
B|-----------------------------------------|
G|-----------------------------------------|
D|-9-9--7--5-5-5-5-5---10-10--9--7-7-7-7-7-| 
A|-9-9--7--5-5-5-5-5---10-10--9--7-7-7-7-7-|
E|-7-7--5--3-3-3-3-3----8--8--7--5-5-5-5-5-|
   Reach out our hands      Hold on to hers 

e|----------------------------------------|
B|----------------------------------------|
G|----------------------------------------|
D|-3-3-3-8-8-8-8-8-5-5-5-10-10-10-10-10---|
A|-3-3-3-8-8-8-8-8-5-5-5-10-10-10-10-10---|
E|-1-1-1-6-6-6-6-6-3-3-3--8--8--8--8--8---|
   But when we wake    It's all been erased

e|------------------------------------|
B|------------------------------------|
G|------------------------------------|
D|-9-9--7--5-5-5-5-5---10-10-11-12----|
A|-9-9--7--5-5-5-5-5---10-10-11-12----|
E|-7-7--5--3-3-3-3-3----8--8--9-10----|
   And so it seems     Only in dreams

  1st Climax  
(3:53)
e|-----------------------------------------------|
B|-----------------------------------------------|
G|-----------------------------------------------|
D|---------9-------------------------------------|
A|---9-----7-----7--------12-----10-----7--------|
E|---7-----------5--------10-----8------9--------|

Lead (starts at 4:18)
e|-------------------------------------------------------------|
B|---------------5--5--5--5-----------------------3--3---1-----|
G|---4--4--4--------------------2--2--2-----2-2----------------|     Repeat 3 times
D|-------------------------------------------------------------|
A|-------------------------------------------------------------|
E|-------------------------------------------------------------|

(4:37)
e|----------------------------------------------------------------------=-|
B|-----------------5--5--5--5---------------------------3----/----1-------|
G|---4--4--4---------------------2--2--2-----2-2--------------------4-----|
D|------------------------------------------------------------------------|
A|------------------------------------------------------------------------|
E|------------------------------------------------------------------------|


Quiet Part Before Build-up (4:55)
e|------|-7---|     |-8---8---8-|-7---|     |-7---x------8----8------|
B|------|--8--|     |--8---8---8|--8--|     |---8-x---8----------8---|
G|--7---|----7| 6x  |---9---9---|---7-|x5   |-------9-------9--------|
D|------|-----|     |-----------|-----|     |------------------------|
A|------|-----|     |-----------|-----|     |------------------------|
E|------|-----|     |-----------|-----|     |------------------------|

e|-7---|      |---7--7----------8---8------|-7---|     |-------7---7---8---8---8----|
B|--8--|      |--------8-------------------|--8--|     |-------8---8---8-----8------|
G|---7-|x4    |-7--7----7--8h9---9--0------|----7|x4   |-8-(8)---7---0---9---9------|
D|-----|      |----------------------------|-----|     |------7---------------------|
A|-----|      |----------------------------|-----|     |----------------------------|
E|-----|      |----------------------------|-----|     |----------------------------|


The Buildup
2 guitars arranged for one
E-|-----------------------------------------------------------------------------------------------|
B-|-----------------------------------------------------------------------------------------------|
G-|-----------------------------------------------------------------------------------------------|
D-|-4-4-4-4-4--5-5-5-5-5-5-5--4-4-4-4-4-4--5-5-5-5-5-5-5-5--7-7-7-7-7-7-7-------------------------|
A-|-----------------------------------------------------------------------5-5-5-5-5---7-7-7-7-7-7-|
E-|-----------------------------------------------------------------------------------------------|
[ Tab from: http://www.guitartabs.cc/tabs/w/weezer/only_in_dreams_tab_ver_4.html ]
E-|-------------------------------------------------------------------------|
B-|-------------------------------------------------------------------------|
G-|---------------------------------4-4--5-5-5-5-5-5-5-5--7-7-7-7-7-7-7-7-7-|
D-|-4-4-4-5-5-5-5-5-5-5--7-7-7-7-7------------------------------------------|
A-|-------------------------------------------------------------------------|
E-|-------------------------------------------------------------------------|

E-|---------------------------------------------------------------------------------------------------|
B-|---------------------------------------------------------------------------------------------------|
G-|7-7-7-7-7-7-7-7-7--9-9-9-9--11-11-11-11-11-11-11-11-11-11-11-11--12-12-12-12--9--7--9--11--9--7--9-|
D-|---------------------------------------------------------------------------------------------------|
A-|---------------------------------------------------------------------------------------------------|
E-|---------------------------------------------------------------------------------------------------|

E-|-----------------------------------------------------------------------------------------------------------|
B-|7-7-7-7-7-7-7-7-8-8-8-8-10-10-10-10-10-10-10-10-10-10-10-11-11-11-13-13-13-13-13-13-13-13-13-13-15-15-15-15|
G-|-----------------------------------------------------------------------------------------------------------|
D-|-----------------------------------------------------------------------------------------------------------|
A-|-----------------------------------------------------------------------------------------------------------|
E-|-----------------------------------------------------------------------------------------------------------|

E-|--------------------------------------------------------------------------------------------|
B-|------15---------10---12---13---------------8----------13--/--12 10------13--/ 12 10--------|
G-|------------12----------------------11------------------------------------------------------|
D-|--------------------------------------------------------------------------------------------|
A-|--------------------------------------------------------------------------------------------|
E-|--------------------------------------------------------------------------------------------|

Second Climax

Guitar 1
You really need to listen to the song closely to know the amount of times to hit each note.
(Rapid Strumming) (6:46)
e|----------------------------------------------------------------------------------------------------------------|
B|15----12--10---8---7--8--/--15----12--10---8-----8---7---3---7---8--10--12--10---8---8/11--11--12---8---11----12|
G|----------------------------------------------------------------------------------------------------------------|
D|----------------------------------------------------------------------------------------------------------------|
A|----------------------------------------------------------------------------------------------------------------|
E|----------------------------------------------------------------------------------------------------------------|

Crazy Solo (7:10)

e|------------------15-----14----12--------------------------------------------|
B|-----8---------------------------------15---12-------------------------------|
G|-----------------------------------------------------15---\-14----12---------|
D|-----------------------------------------------------------------------------|
A|-----------------------------------------------------------------------------|
E|-----------------------------------------------------------------------------|


e|------------------15-----14----12---------------------------------------------|
B|-----8---------------------------------15---12--------------------------------|
G|-----------------------------------------------------15----14----12-----------|
D|------------------------------------------------------------------------------|
A|------------------------------------------------------------------------------|
E|------------------------------------------------------------------------------|

e|-----19------17------15--------------------------------------|
B|--------------------------------19----\---17----15-----------|
G|-------------------------------------------------------------|
D|-------------------------------------------------------------|
A|-------------------------------------------------------------|
E|-------------------------------------------------------------|

e|-----19------17------15-----------------------------------|
B|--------------------------------19-------17----15---------|
G|----------------------------------------------------------|
D|----------------------------------------------------------|
A|----------------------------------------------------------|
E|----------------------------------------------------------|

e|----22----20----19---20---15----15--14-----10----15---14-----10------------------------|
B|-------------------------------------------------------------------12---- (sustain)----|
G|---------------------------------------------------------------------------------------|
D|---------------------------------------------------------------------------------------|
A|---------------------------------------------------------------------------------------|
E|---------------------------------------------------------------------------------------|

Bass Outro (7:41)

G|-------------------------------------------------------|
D|-----------0h--2-2-2-2-2p0-----------------------------|
A|---2-2-2--------------------0-0-0-0-0-----5-5---3-3----|
E|-------------------------------------------------------|

G|-------------------------------------------------------|
D|-----------0h--2-2-2-2-2p0-----------------------------|
A|---2-2-2--------------------0-0-0-0-0-----5-5---3-3----|
E|----------------------------------------------------3--|
Comments