Weezer - Only In Dreams Chords & Tabs

 

Only In Dreams Chords & Tabs

Weezer Chords & Tabs

Version: 4 Type: Bass Tab 0 ratings
1 star 2 stars 3 stars 4 stars 5 stars
comments

Only In Dreams Bass Tab

Intro and main theme repeats through most of the song:

G|---------------------------------|
D|---------------------------------|
A|0-0-0-45-5-5-5-53--------3-3-1-1-|
E|-----------------3-3-3-3---------|

Chorus:
[ Tab from: http://www.guitartabs.cc/tabs/w/weezer/only_in_dreams_btab_ver_4.html ]
G|-----------------------------------|
D|-----------------------------------|
A|00-------11-0-----00------11-0-----|
E|--3-1-11-----3-33---3-1-11----3-33-|

G|--------------------------------------------------|
D|--------------------------------------------------|
A|3-3-3-3-5-5-5-5-1-1-1-1-3-3-3-3-0-0-------------0-|
E|------------------------------------3-1-11-11-3---|
Comments