Weezer - Only In Dreams Chords & Tabs

 

Only In Dreams Chords & Tabs

Weezer Chords & Tabs

Version: 1 Type: Bass Tab 0 ratings
1 star 2 stars 3 stars 4 stars 5 stars
comments

Only In Dreams Bass Tab

                                  ONLY IN DREAMS
        h=hammer on
        p=pull off

G------------------------------------------------------------------------------
D--------0h2-2-2-2-2p0------------------------0h2-2-2-2-2p0--------------------
A--2-2-2---------------0-0-0-00-5-5-3-3-2-2-2---------------0-0-0-00-5-5-3-3---
E------------------------------------------------------------------------------

--------------------------------------------------------------------------5----
--------0h2-2-2-2-2p0------------------------0h2-2-2-2-2p0--------------------*
--2-2-2---------------0-0-0-00-5-5-3-3-2-2-2---------------0-0-0-00-5-5-3-----*
-------------------------------------------------------------------------------
[ Tab from: http://www.guitartabs.cc/tabs/w/weezer/only_in_dreams_btab.html ]
     Repeat until chorus:
G------------------------------------------------------------------------------
------------------------------------------------------------------------------*
--1-1-1-1-1-------3-3-3-3-3-2-2-0-----------3-3-4-5---------------------------*
------------3-3-3-----------------3-3-3-3-3------------------------------------


     Alternate chorus (Later in song)
G------------------------------------------------------------------------------
D-----------------------------------------------------------------------------*
A--222222/7777777777-00000000-5555-3333-222222/7777777777-00000000-5555-3333-2*
E------------------------------------------------------------------------------

          END
G-----------------------------------------------------------------------------
D--------0h2-2-2-2-2p0--------------------------------------------------------
A--2-2-2---------------0-0-0-00-5-5-3-3---------------------------------------
E---------------------------------------3-------------------------------------

Comments