Weezer - Mykel And Carli Chords & Tabs

 

Mykel And Carli Chords & Tabs

Weezer Chords & Tabs

Version: 3 Type: Tab 0 ratings
1 star 2 stars 3 stars 4 stars 5 stars
comments

Mykel And Carli Tab

   
Mykel and Carli by Weezer

Tabbed by: Guitar_Maestro
Email: Spot_Cleo23@yahoo.com

If there are any faults, please contact me
Since I was in my fourth week of guitar
when I wrote this, there might be some

Tuning: Half step down

The song order is at the bottom

             Intro
                                         *
eb|--3--3--3--3--0--0--0--0--2--2--0--2--3--3--3--3--|
Bb|--3--3--3--3--1--1--1--1--3--3--3--3--3--3--3--3--|
Gb|--0--0--0--0--0--0--0--0--2--2--2--2--0--0-0--0--| play 4x, stop at
Db|--------------------------------------------------| * fourth time
Ab|--------------------------------------------------|
Eb|--------------------------------------------------|

		Verse A

eb|--------------------------------------------------|
Bb|--------------------------------------------------|
Gb|--------------5--5--5--5--7--7--7-7--------------| play 2x
Db|--5--5--5--5--5--5--5--5--7--7--7--7--5--5--5--5--|
Ab|--5--5--5--5--3--3--3--3--5--5--5--5--5--5--5--5--|
Eb|--3--3--3--3--------------------------3--3--3--3--|

		Verse B

eb|--------------------------------------------------|
Bb|--------------------------------------------------|
Gb|--------------2--2--2--2--7--7--7--7--------------| play 2x
Db|--2--2--2--2--2--2--2--2--7--7--7--7--5--5--5--5--|
Ab|--2--2--2--2--0--0--0--0--5--5--5--5--5--5--5--5--|
Eb|--0--0--0--0--------------------------3--3--3--3--|

		Interlude

eb|--------------------------------------------------|
Bb|--------------------------------------------------|
Gb|--------------5--5--5--5--7--7--7--7--------------|
Db|--5--5--5--5--5--5--5--5--7--7--7--7--5--5--5--5--|
Ab|--5--5--5--5--3--3--3--3--5--5--5--5--5--5--5--5--|
Eb|--3--3--3--3--------------------------3--3--3--3--|

		Verse A

eb|--------------------------------------------------|
Bb|--------------------------------------------------|
Gb|--------------5--5--5--5--7--7--7--7--------------|
Db|--5--5--5--5--5--5--5--5--7--7--7--7--5--5--5--5--|
Ab|--5--5--5--5--3--3--3--3--5--5--5--5--5--5--5--5--|
Eb|--3--3--3--3--------------------------3--3--3--3--|

		Verse B
eb|--------------------------------------------------|
Bb|--------------------------------------------------|
Gb|--------------2--2--2--2--7--7--7--7--------------| play 2x
Db|--2--2--2--2--2--2--2--2--7--7--7--7--5--5--5--5--|
Ab|--2--2--2--2--0--0--0--0--5--5--5--5--5--5--5--5--|
Eb|--0--0--0--0--------------------------3--3--3--3--|

		Chorus

eb|--------------------------------------------------|
Bb|--------------------------------------------------|
Gb|--4-----4-----5--5--5--5--7--7--7--7--------------|
Db|--4-----4-----5--5--5--5--7--7--7--7--5--5--5--5--| play 2x
Ab|--2-----2-----3--3--3--3--5--5--5--5--5--5--5--5--|
Eb|--------------------------------------3--3--3--3--|

		Interlude
[ Tab from: http://www.guitartabs.cc/tabs/w/weezer/mykel_and_carli_tab_ver_3.html ]
eb|--------------------------------------------------|
Bb|--------------------------------------------------|
Gb|--------------5--5--5--5--7--7--7--7--------------|
Db|--5--5--5--5--5--5--5--5--7--7--7--7--5--5--5--5--| play 2x
Ab|--5--5--5--5--3--3--3--3--5--5--5--5--5--5--5--5--|
Eb|--3--3--3--3--------------------------3--3--3--3--|

		Verse A

eb|--------------------------------------------------|
Bb|--------------------------------------------------|
Gb|--------------5--5--5--5--7--7--7--7--------------|
Db|--5--5--5--5--5--5--5--5--7--7--7--7--5--5--5--5--| play 2x
Ab|--5--5--5--5--3--3--3--3--5--5--5--5--5--5--5--5--|
Eb|--3--3--3--3--------------------------3--3--3--3--|

		Verse B

eb|--------------------------------------------------|
Bb|--------------------------------------------------|
Gb|--------------2--2--2--2--7--7--7--7--------------| play 2x
Db|--2--2--2--2--2--2--2--2--7--7--7--7--5--5--5--5--|
Ab|--2--2--2--2--0--0--0--0--5--5--5--5--5--5--5--5--|
Eb|--0--0--0--0--------------------------3--3--3--3--|

		Chorus

eb|--------------------------------------------------|
Bb|--------------------------------------------------|
Gb|--4-----4-----5--5--5--5--7--7--7--7--------------|
Db|--4-----4-----5--5--5--5--7--7--7--7--5--5--5--5--| play 2x
Ab|--2-----2-----3--3--3--3--5--5--5--5--5--5--5--5--|
Eb|--------------------------------------3--3--3--3--|

		Verse B
eb|--------------------------------------------------|
Bb|--------------------------------------------------|
Gb|--------------2--2--2--2--7--7--7--7--------------| play 2x
Db|--2--2--2--2--2--2--2--2--7--7--7--7--5--5--5--5--|
Ab|--2--2--2--2--0--0--0--0--5--5--5--5--5--5--5--5--|
Eb|--0--0--0--0--------------------------3--3--3--3--|


Solo- I believe a solo is the band's own music and it shouldn't be copied, so go make up 
own. It's fairly easy to learn this one, too, but I won't tab it for these reasons.

		Verse (same as intro)
                                         *
eb|--3--3--3--3--0--0--0--0--2--2--0--2--3--3--3--3--|
Bb|--3--3--3--3--1--1--1--1--3--3--3--3--3--3--3--3--|
Gb|--0--0--0--0--0--0--0--0--2--2--2--2--0--0-0--0--| play 4x, stop at
Db|--------------------------------------------------| * fourth time
Ab|--------------------------------------------------|
Eb|--------------------------------------------------|

		Chorus

eb|--------------------------------------------------|
Bb|--------------------------------------------------|
Gb|--4-----4-----5--5--5--5--7--7--7--7--------------|
Db|--4-----4-----5--5--5--5--7--7--7--7--5--5--5--5--| play 4x
Ab|--2-----2-----3--3--3--3--5--5--5--5--5--5--5--5--|
Eb|--------------------------------------3--3--3--3--|

		Outro

eb|--------------------------------------------------|
Bb|--------------------------------------------------|
Gb|--4-----4-----5-----5-----7-----7-----------------|
Db|--4-----4-----5-----5-----7-----7-----5===========|
Ab|--2-----2-----3-----3-----5-----5-----5===========|
Eb|--------------------------------------3===========|

Order of Music

Intro     4x
Verse A   2x
Verse B   2x
Interlude 1x
Verse A   1x
Verse B   2x
Chorus    2x
Interlude 2x
Verse A   2x
Verse B   2x
Chorus    2x
Verse B   2x
Chorus    2x
Solo
Intro     4x
Chorus    4x
Outro     1x
Comments