Weezer - Mykel And Carli Chords & Tabs

 

Mykel And Carli Chords & Tabs

Weezer Chords & Tabs

Version: 2 Type: Tab 0 ratings
1 star 2 stars 3 stars 4 stars 5 stars
comments

Mykel And Carli Tab

   
                                     *Weezer*
                                 *Mykel and Carli*
                               *B-Sides And Rarities*


Acoustic Intro (x4):

e--3-3-3-3-0-0-0-0-2-2-0-2-3-3-3-3--|
B--3-3-3-3-1-1-1-1-3-3-3-3-3-3-3-3--|
G--0-0-0-0-0-0-0-0-2-2-2-2-0-0-0-0--|
D--0-0-0-0-2-2-2-2-0-0-0-0-0-0-0-0--|
A--2-2-2-2-3-3-3-3---------2-2-2-2--|
E--3-3-3-3-----------------3-3-3-3--|

slowly bend up a 1/2 step
e-----------------------------------|
B-----------------------------------|
G--15^------------------------------|
D-----------------------------------|
A-----------------------------------|
E-----------------------------------|
Harmonica arranged for guitar:

e--3--0-----------------------------|
B--------3--1-0---------------------|
G----------------2-4-2-4--2-0-------|
D-----------------------------4-5---|
A-----------------------------------|
E-----------------------------------|

G              C    D              G
Back at Wilson High I had two best friends
G                   C     D                 G
They lived down the block where Eagle Court bends
E                    A      D                G
One she cared for my bones, fed me ice cream cones
E                    A          D                  G
One she cared for my happiness, would'nt leave me alone

Dist. Guitar:
e--3--0----------|
B--------3--1-0--|sustain & feedback
G----------------|
D----------------|
A----------------|
E----------------|

G              C            D                  G
Back in Wilson High, said I had these two best friends
E                   A        D                G
'Til the school bus came and took my friends away
E             A               D                 G
Now I'm left alone at home to sit and think all day

Chorus:
[ Tab from: http://www.guitartabs.cc/tabs/w/weezer/mykel_and_carli_tab_ver_2.html ]
B    B   C   D G
Hear you me, Mykel
B    B   C   D  G
Hear you me, Carli

  [harmonica...]  [guitar................]
e--3--0------------------------------------|
B--------3--1-0---/12-10-12~--10-----------|
G--------------------------------12-11-12~-|
D------------------------------------------|
A------------------------------------------|
E------------------------------------------|

They gave me a hat, the hat was awful rad
Wore it ev'ry day, made my teacher mad
She tore it off my head, now my head's well-read
My head gets cold at nite sometimes, but i can't be misled

Hear you me, Mykel
Hear you me, Carli
She tore it off my head, now my head's well read
My head gets cold at nite sometimes, but i can't be mislead

Solo (played over chorus riff):

    (full bends)                               (1/2 bend)
e--12^-12^-12^12~~~----------------------------------------|
B--------------------13-12----15-12~~-------------12-12h15-|
G--------------------------12-----------14p12-14^----------|
D----------------------------------------------------------|
A----------------------------------------------------------|
E----------------------------------------------------------|

       (full)                      (1/2)
e--12-17^-17-15h17-----------------------------------------|
B------------------15h17p15h17-19-19^-19^------------------|
G----------------------------------------------------------|
D----------------------------------------------------------|
A----------------------------------------------------------|
E----------------------------------------------------------|

Sing over "Acoustic Intro" phrase:

Back in Wilson High, I had two best friends
They lived 'round the block, where Eagle Court bends
'Til the school bus came and took my friends away
Now I'm left alone at home, sit and think all day

Harmonica (drawn out during "'Til the school bus...away"):
e--3----5----7----------------------|
B-----------------------------------|
G-----------------------------------|
D-----------------------------------|
A-----------------------------------|
E-----------------------------------|
Hear you me, Mykel
Hear you me, Carli
Oh, oh no, Mykel
Whoa, oh no, Carli

1/2 time chorus/finale!
("whoa oh oh...")
Comments