Weezer - My Name Is Jonas Chords & Tabs

 

My Name Is Jonas Chords & Tabs

Weezer Chords & Tabs

Version: 1 Type: Bass Tab 1 rating
1 star 2 stars 3 stars 4 stars 5 stars
comments

My Name Is Jonas Bass Tab

   
Weezer
My Name Is Jonas
Tabbed by Jason (dawgawd@hotmail.com)

Tuning, half step down

(guitar intro)

VERSE

Gb|---------------------------|
Db|---------------------------|
Ab|-3-3-3-------------------3-|
Eb|-------3-3-3-5-5-5-1-1-1---|

Gb|-------------------------|
Db|-------------------------|
Ab|-3-3-3-------------------| repeat until...
Eb|-------3-3-3-5-5-5-1-1-1-|

Gb|-------------------------|
Db|-------------------------|
Ab|-3-3-3-------------------|
Eb|-------5-5-5-3-3-3-3-3-3-|

BRIDGE
[ Tab from: http://www.guitartabs.cc/tabs/w/weezer/my_name_is_jonas_btab.html ]
Gb|-------------------------|
Db|-------------------------|
Ab|-------------------------| repeat until...
Eb|-2-2-2-2-2-2-4-4-4-4-4-4-|

Gb|---|
Db|---|
Ab|---| bang on this note for a long time
Eb|-2-|

Gb|-------------------------|
Db|-------------------------|
Ab|-3-3-3-------------------| repeats until...
Eb|-------5-5-5-3-3-3-3-3-3-|

Gb|-------------------------|
Db|-------------------------|
Ab|-------------------------| (workers are going home...)
Eb|-0-0-0-1-1-1-3-3-3-3-3-3-|  repeat for a while...

OUTRO

Gb|------------------------------------|
Db|------------------------------------|
Ab|------------------------------------| a couple times
Eb|-0-0--0-0--1-1-1--3-3--3-3--3--3--3-|

then the guitar again

Comments