Weezer - Keep Fishing Chords & Tabs

 

Keep Fishing Chords & Tabs

Weezer Chords & Tabs

Version: 2 Type: Bass Tab 0 ratings
1 star 2 stars 3 stars 4 stars 5 stars
comments

Keep Fishing Bass Tab

      intro/verse 1 
G-------------------
D------------------- x2 
A-2-2-2222----------
E----------0-0-0000-
[ Tab from: http://www.guitartabs.cc/tabs/w/weezer/keep_fishing_btab_ver_2.html ]
G-------------------
D------------------- x2 
A-4-4-4444----------
E----------2-2-2222- 
      chorus
G-------------------------------------
D------------------------------------- x2
A-2-22--------------4-44--------------
E-------4-44--0-00--------222222222222 
        verse2
G-------------------
D------------------- x2  
A-2-2-2222----------
E----------0-0-0000-

G-------------------
D------------------- x2 
A-4-4-4444----------
E----------2-2-2222- 

 repeat chorus 

      post chorus                 to save.. you from.. yourself 
G------------------------        G------------------------------
D------------------------ x3     D------------------------------ 
A-77777777---------------        A----------4-------------------
E-----------777777777----        E-0----------------2-----------
Comments