Weezer - Jamie Chords & Tabs

 

Jamie Chords & Tabs

Weezer Chords & Tabs

Version: 2 Type: Bass Tab 0 ratings
1 star 2 stars 3 stars 4 stars 5 stars
comments

Jamie Bass Tab

=rwa= tabs
==========
weezer
jamie (cuomo)

guitar transcription by Eric Zemcak (pronounced Zemchack) 

	Down tune Eb to Db

VERSE:
Gb|-----------------------|
Db|o---------------------o|
Ab|o---------------------o|
Db|---5-5-5-5---0-0-0-0---|

PRE-CHORUS:
Gb|--------------------------------------------|
Db|o------------------------------------------o|
Ab|o---------------------------------3-3-3-3--o|
Db|---5-5-5-5---0-0-0-0----2-2-2-2-------------|
	After playing this, play VERSE twice, then play FILL #1.

FILL #1
Gb|-------------------------|
Db|---2-2-2-2---------------|
Ab|-------------2-2---3-3---|
Db|-------------------------|
[ Tab from: http://www.guitartabs.cc/tabs/w/weezer/jamie_btab_ver_2.html ]
CHORUS:
Gb|-----------------------------------------------------|
Db|-----------------------------------------------------|
Ab|-------------2-2-2-2---7-7-7-7---5-5-5-5---3-3-3-3---|
Db|---5-5-5-5-------------------------------------------|

Gb|---------------------------------------------------|
Db|---------------------------------------------------|
Ab|-------------------------------2-2-2-2---3-3-3-3---|
Db|---5-5-5-5---0-0-0-0-0-0-0-0-----------------------|
	Back to VERSE

BRIDGE:
Gb|-------------------------------------------------|
Db|o-----------------------------------------------o|
Ab|o----------------2-2-2---3----------------------o|
Db|---5-5-5-5---0---------------5-5-5-5---0-0-0-0---|
	"Sometimes it seems...."

SOLO:
	PLAY VERSE
Comments