Weezer - Hold Me Chords & Tabs

 

Hold Me Chords & Tabs

Weezer Chords & Tabs

Version: 3 Type: Tab 0 ratings
1 star 2 stars 3 stars 4 stars 5 stars
comments

Hold Me Tab

   
Song: Peace
Band: Weezer
Album: Make Believe
Tabbed By: Luke Jordan (Skywalkr99@aol.com)


Intro
   E       G#m     A       B
e|-------------------------------0-|
B|---------------------------------|
G|-----1-------4-------6-------8---|
D|-------2-------6-------7---------|
A|---2-------6-------7-------9-----|
E |-0-------4-------5-------7------|

Verse 1
  E G#m A B            E  G#m  A   B                 E G#m A B 
I am      terrified of all things, frightened of the dark    
  E G#m A B
I am

    E G#m A B             E  G#m  A  B               E G#m A B
You are     taller than a mountain,  deeper than the sea
    E G#m A B
You are


Chorus (Distorted Guitar)
     E        G#m      C#m        A      
eb|--------|--------|----------|--------|
Bb|--------|--------|----------|--------|
Gb|--------|--------|----------|--------|
Db|--2--2--|--6--6--|--11--11--|--7--7--|
Ab|--2--2--|--6--6--|--11--11--|--7--7--|
Eb|--0--0--|--4--4--|--9---9---|--5--5--|
     Hoooooooold       me
     Hoooooooold       me
              Take me with you 'cause I'm 
     Looooooooooooooonely

Chorus Guitar 2 fill
   E      G#m      C#m      A        E      G#m      C#m      A 
eb|---------------|-----------------|---------------|-----------------|
Bb|---------------|-----------------|--------9------|-----------------|
Gb|---------------|-----------------|--------11b----|-9~--------------|
Db|---------------|-----------9b-9b-|---------------|-----------9b~---|
Ab|---------------|-----------------|---------------|-----------------|
Eb|---------------|-----------------|---------------|-----------------|

   E      G#m      C#m      A        E      G#m      C#m      A 
eb|---------------|---------------|-----------------|-----------------|
Bb|---------------|---------------|-----------------|-----------------|
Gb|---------------|---------------|-9-9-9-9-8-8-8-8-|-9-9-9-9-/9------|
Db|---------------|---------------|-----------------|------------9-9~-|
Ab|---------------|---------------|-----------------|-----------------|
Eb|---------------|---------------|-----------------|-----------------|

[ Tab from: http://www.guitartabs.cc/tabs/w/weezer/hold_me_tab_ver_3.html ]
Verse 2
  E G#m A B             E  G#m  A  B          E G#m A B
I was     closer to you back then  I was happier
  E G#m A B
I was

    E G#m A B              E  G#m  A  B                  E G#m A B
You are     fading further from me    why don't you come home
   E G#m A B
To me


Chorus
     E        G#m      C#m        A      
eb|--------|--------|----------|--------|
Bb|--------|--------|----------|--------|
Gb|--------|--------|----------|--------|
Db|--2--2--|--6--6--|--11--11--|--7--7--|
Ab|--2--2--|--6--6--|--11--11--|--7--7--|
Eb|--0--0--|--4--4--|--9---9---|--5--5--|
     Hoooooooold       me
     Hoooooooold       me
              Take me with you 'cause I'm 
     Looooooooooooooonely


Bridge
eb|--------------|---------|-------------|----------|
Bb|--------------|---------|-------------|----------|
Gb|--------------|---------|-------------|----------|
Db|--11-11-11-11-|-6-6-6-6-|-11-11-11-11-|-6-6-6-6--|
Ab|--11-11-11-11-|-6-6-6-6-|-11-11-11-11-|-6-6-6-6--|
Eb|--9--9--9--9--|-4-4-4-4-|-9--9--9--9--|-4-4-4-4--|
           I       am              I       am         

eb|----------|---------|---------|-----------------|-----------------|
Bb|----------|---------|---------|-----------------|-----------------|
Gb|----------|---------|---------|-----------------|-----------------|
Db|--7-7-7-7-|-2---9---|-2---9---|-2-2-2-2-2-2-2-2-|-9-9-9-9-9-9-9-9-|
Ab|--7-7-7-7-|-2---9---|-2---9---|-2-2-2-2-2-2-2-2-|-9-9-9-9-9-9-9-9-|
Eb|--5-5-5-5-|-0---7---|-0---7---|-0-0-0-0-0-0-0-0-|-7-7-7-7-7-7-7-7-|
     Cold      Hoooooooooooooold   me       

solo

e--11----10-11----10-11--------------------------------------------|
b-----11-------11-------11--9-8----8h9-----------------------------|
g-------------------------------10-----10--------------------------|
d------------------------------------------------------------------|
a------------------------------------------------------------------|
d------------------------------------------------------------------|

e---------------------------------11-11-11-8-6-8--8-8-8-6-4-6----------|
b--11-11-11--9-8-9--9-9-9-8----8--11-11-11-9-8-9--9-9-9-8-6-8----------|
g---------------------------10-----------------------------------------|
d----------------------------------------------------------------------|
a----------------------------------------------------------------------|
d----------------------------------------------------------------------|
Comments