Weezer - Hold Me Chords & Tabs

 

Hold Me Chords & Tabs

Weezer Chords & Tabs

Version: 1 Type: Tab 0 ratings
1 star 2 stars 3 stars 4 stars 5 stars
comments

Hold Me Tab

   
make believe
hold me - weezer

this song is actually played in standard tuning half a step down. this version
is for people who can't be arsed to tune down their guitars, like me

verse

e-------------------------------------------------------------|
b-----------------------------------3-4-----------------------|
g------0---------3--------5-----------3-----------------------|
d------------------5--------6-----3---------------------------|
a----1---1/----5--------6-------1-----------------------------|
d--1---------5--------6---------------------------------------|

chorus

e-----------------------------------------------------------|
b-----------------------------------------------------------|
g--------5--------------------------------------------------|
d--1--5--5--6-----------------------------------------------|
a--1--5--3--6-----------------------------------------------|
d--1--5-----6-----------------------------------------------|

'i am'
[ Tab from: http://www.guitartabs.cc/tabs/w/weezer/hold_me_tab.html ]
e----------------------------------------------------------------------|
b----------------------------------------------------------------------|
g--5---3--0-3-0-3---5--3-0-3-0-3-------3---3-----3---------------------|
d--5---3------------5--3----------6--1-3-1-3--1--3---------------------|
a--3---1------------3--1----------6--1-1-1-1--1--1---------------------|
d---------------------------------6--1---1----1------------------------|

solo

e--11----10-11----10-11--------------------------------------------|
b-----11-------11-------11--9-8----8h9-----------------------------|
g-------------------------------10-----10--------------------------|
d------------------------------------------------------------------|
a------------------------------------------------------------------|
d------------------------------------------------------------------|

e---------------------------------11-11-11-8-6-8--8-8-8-6-4-6----------|
b--11-11-11--9-8-9--9-9-9-8----8--11-11-11-9-8-9--9-9-9-8-6-8----------|
g---------------------------10-----------------------------------------|
d----------------------------------------------------------------------|
a----------------------------------------------------------------------|
d----------------------------------------------------------------------|
Comments