Weezer - Hash Pipe Chords & Tabs

 

Hash Pipe Chords & Tabs

Weezer Chords & Tabs

Version: 3 Type: Tab 0 ratings
1 star 2 stars 3 stars 4 stars 5 stars
comments

Hash Pipe Tab

Band: Weezer 
Song: Hash pipe

Tabbed by  

Intro/Verse
(0:01)(0:54)(1:48)
E-------------------------------
B-------------------------------
G-------------------------------
D-------------------------------
A-------------------------------
E----0--0--2--3----------------- repeat this X24

Chorus
(0:23)(1:17)
E-------------------------------
B-------------------------------
G-------------------------------
D------5---5--55--X--5----------
A------7---7--77--X--7----------
E------0---0--00--X--0----------


(0:27)(1:21)
E-------------------------------
B-------------------------------
G-------------------------------
D----66\8\9---------------------
A----44\6\7---------------------
E-------------------------------

(0:31)(1:25)
E-------------------------------
B-------------------------------
G-------------------------------
D------5---5--55--X--5----------
A------7---7--77--X--7----------
E------0---0--00--X--0----------

(0:35)(1:28)
E-------------------------------
B-------------------------------
G-------------------------------
D-10-9-7-5-4--------------------     
A-10-9-7-5-4--------------------
E-8--7-5-3-2--------------------

(1:55)
E--------------------------------------------------------------------------------
B--------------------------------------------------------------------------------
G--10-10-10-10----8-8-8-8------------------------------13-13-13-13----11-11-11-11
D----------------------------11-11-11-11----9-9-9-9------------------------------
A--------------------------------------------------------------------------------
E--------------------------------------------------------------------------------
[ Tab from: http://www.guitartabs.cc/tabs/w/weezer/hash_pipe_tab_ver_3.html ]
E---------------------------------------------------------------------------------------
B---------------------------------------------------------------------------------------
G--------------------------------16-16-16-16----14-14-14-14-----------------------------
D--14-14-14-14----12-12-12-12---------------------------------17-17-17-17----15-15-15-15
A---------------------------------------------------------------------------------------
E---------------------------------------------------------------------------------------

E---------------------------------------------------------------------------------------
B---------------------------------------------------------------------------------------
G---19--17--19--17----------------------------------------------------------------------
D---------------------------------------------------------------------------------------
A---------------------------------------------------------------------------------------
E---------------------------------------------------------------------------------------

(2:10) (2:18)
E-------------------------------
B-------------------------------
G-------------------------------
D------5---5--55--X--5----------
A------7---7--77--X--7----------
E------0---0--00--X--0----------

(2:14)
E-------------------------------
B-------------------------------
G-------------------------------
D----66\8\9---------------------
A----44\6\7---------------------
E-------------------------------

(2:22)
E-------------------------------
B-------------------------------
G-------------------------------
D-10-9-7-5-4--------------------     
A-10-9-7-5-4--------------------
E-8--7-5-3-2--------------------

(2:41)
E-------------------------------
B-------------------------------
G-------------------------------
D-------------------------------
A-------------------------------
E----0--0--2--3-----------------


(2:49)
E-------------------------------
B-------------------------------
G-------------------------------
D-------------------------------
A----------2--3-----------------
E----0--0--2--3-----------------


Tabbed by  
ICQ: 38038332
If you got a question or a correction please mail me!
NOTE:
I have my guitar sharpened in another tone, like the watered down
cords, if you do not manage to find the sound of the song, looks for
as it is, if you want to touch it equal then loose a little your
cords.
Comments