Weezer - Hash Pipe Chords & Tabs

 

Hash Pipe Chords & Tabs

Weezer Chords & Tabs

Version: 12 Type: Tab 0 ratings
1 star 2 stars 3 stars 4 stars 5 stars
comments

Hash Pipe Tab

Artist: Weezer
Song: Hash Pipe
Album: Weezer "The Green Album"
Tabbed: SIAS
Tuning: Standard

Main Riff
E|-----------------|
B|-----------------|
G|-----------------|
D|-2-2-4-5---------|
A|-0-0-2-3---------|
E|-----------------|
Play with Palm Mute

When the "Ooooo" part comes i play

Part 1
E|-----------------------|
B|-----------------------|
G|-6--6-6--6-6-6--6-6----|
D|-6--6-6--6-6-6--6-6----|
A|-4--4-4--4-4-4--4-4----|
E|-----------------------|

Next Part
E|--------------------|
B|--------------------|
G|--------------------|
D|--------------------|
A|--------------------|
E|-0-0-2-3--0-0-2-3---|

Repeat Part 1

Use Main Riff with Palm Mute
[ Tab from: http://www.guitartabs.cc/tabs/w/weezer/hash_pipe_tab_ver_12.html ]
Solo (This is how I play it, it might not be exact)
E|---------------------------|
B|---------------------------|
G|---------------------------|   Part 1 of 4
D|-8-8-8-8-7-7-7-7-5-5-5-5--3|
A|---------------------------|
E|---------------------------|

E|----------------------------|
B|----------------------------|
G|--8-8-8-8-7-7-7-7-5-5-5-5--3| Part 2 of 4
D|----------------------------|
A|----------------------------|
E|----------------------------|

E|-----------------------------|
B|--8-8-8-8-7-7-7-7-5-5-5-5--3-|
G|-----------------------------| Part 3 of 4
D|-----------------------------|
A|-----------------------------|
E|-----------------------------|

E|--8-8-8-8-7-7-7-7-5-5-5-5--3|
B|----------------------------|
G|----------------------------|
D|----------------------------|
A|----------------------------|
E|----------------------------|

Enjoy
Comments