Weezer - Hash Pipe Chords & Tabs

 

Hash Pipe Chords & Tabs

Weezer Chords & Tabs

Version: 10 Type: Tab 0 ratings
1 star 2 stars 3 stars 4 stars 5 stars
comments

Hash Pipe Tab

-------------------------------------------------------------------------------
			     HASH PIPE - Weezer
-------------------------------------------------------------------------------
from the green album (2001)

By: Jake Shenker
    Montreal, Quebec
    shenkj@hotmail.com

	The first single from the new album. An amazing song, simple to play.

Intro / verse (palm-muted)

e|---------------------------------------------------------------------------|
B|---------------------------------------------------------------------------|
G|--2-2-4-5------------------------------------------------------------------|
D|--2-2-4-5------------------------------------------------------------------|
A|--0-0-2-3------------------------------------------------------------------|
E|---------------------------------------------------------------------------|

Chorus
[ Tab from: http://www.guitartabs.cc/tabs/w/weezer/hash_pipe_tab_ver_10.html ]
   Whoa, come on and kick me,           whoa, come on and kick me
e|---------------------------------------------------------------------------|
B|---------------------------------------------------------------------------|
G|-7--------------------------2-2-4-5---7-------------------------------------|
D|-7--------------------------2-2-4-5---7-------------------------------------|
A|-5--------------------------0-0-2-3---5-------------------------------------|
E|---------------------------------------------------------------------------|
   (Whoa-oa) Come on and kick me,   (whoa-oa) You got your problems
e|---------------------------------------------------------------------------|
B|---------------------------------------------------------------------------|
G|-10------------------------------9-----------------------------------------|
D|-10------------------------------9-----------------------------------------|
A|--8------------------------------7-----------------------------------------|
E|--8------------------------------7-----------------------------------------|

   (Whoa-oa) I got my hash pipe,   (Whoa-oa) You got your big cheese
e|---------------------------------------------------------------------------|
B|---------------------------------------------------------------------------|
G|-7------------------------------5------------------------------------------|
D|-7------------------------------5------------------------------------------|
A|-5------------------------------3------------------------------------------|
E|-5------------------------------3------------------------------------------|

   I got my hash pipe                 I got my hash pipe
e|---------------------------------------------------------------------------|
B|---------------------------------------------------------------------------|
G|-4-------------------------------------------------------------------------|
D|-4---------------------------5---------------------------------------------|
A|-2---------------------------5---------------------------------------------|
E|-2---------------------------3---------------------------------------------|

Solo (with wah-wah)

e|---------------------------------------------------------------------------|
B|--13-12-10--8---------------13-12-10--8---13-12--13-12---------------------|
G|---x--x--x--x--9--7--5--4----x--x--x--x----x--x---x--x---------------------|
D|--10--9--7--5--x--x--x--x---10--9--7--5---10--9--10--9---------------------|
A|---------------7--5--3--2--------------------------------------------------|
E|---------------------------------------------------------------------------|

Comments