Weezer - Hang On Chords & Tabs

 

Hang On Chords & Tabs

Weezer Chords & Tabs

Version: 1 Type: Tab

Hang On Tab

Tabbed by: sabre210

Intro

e|-10--10--9--10--9--7--7-7---10--10--9--10--9--7--7------------------------|
B|---------------------------------------------------9--7-------------------|
G|--------------------------------------------------------------------------|
D|--------------------------------------------------------------------------|
A|--------------------------------------------------------------------------|
E|--------------------------------------------------------------------------|

inro/verse/chorus

e|--------------------------------------------------------------------------|
B|--------------------------------------------------------------------------|
G|----7--7------------------------------------------------------------------|
D|----7--7--7--7---99999----------------------------------------------------|
A|----5--5--7--7---99999----------------------------------------------------|
E|----------5--5---77777----------------------------------------------------|
[ Tab from: http://www.guitartabs.cc/tabs/w/weezer/hang_on_tab.html ]
pre-chorus
(over and over...)
e|--------------------------------------------------------------------------|
B|--------------------------------------------------------------------------|
G|--------------------------------------------------------------------------|
D|-555555555555555--777777777777777--999999999999999--777777777777-7-7------|
A|-555555555555555--777777777777777--999999999999999--777777777777-7-7------|
E|-333333333333333--555555555555555--777777777777777--555555555555-5-5------|

pre-chorus 2
(sweet thing...)
e|--------------------------------------------------------------------------|
B|--------------------------------------------------------------------------|
G|--------------------------------------------------------------------------|
D|--999999999999999--555555555555555--777777777777777--999999999999-7-7-----|
A|--999999999999999--555555555555555--777777777777777--999999999999-7-7-----|
E|--777777777777777--333333333333333--555555555555555--777777777777-5-5-----|

for strumming listen to the song 
thanks :)