Weezer - Green Chords & Tabs

 

Green Chords & Tabs

Weezer Chords & Tabs

Version: 1 Type: Tab 0 ratings
1 star 2 stars 3 stars 4 stars 5 stars
comments

Green Tab

   
   =========\   Weezer     /========== 
   =========\\       The Green Album    //========== 
     \\   //  /======== 
   ========\  \\  //  //======== 
   ========\\  \\ //  // 
    \\  \\        //  // 
     \\  \\       //  // 
      \\  \\    /^\      //  // 
       \\  \\   //^\\     //  // 
\\  \\   //   \\   //  // 
 \\  \\ //     \\ //  // 
  \\  ŻŻŻ  /^\  ŻŻŻ  // 
   \\   //^\\     // 
    \\   //   \\   // 
     ŻŻŻŻŻ     ŻŻŻŻŻ 


Transcribed by: Jeremey Poparad 
E-mail: jeremey@nci2000.net 

This should be very accurate, I don't think I left anything out or made 
any errors.  E-mail any possible corrections to the above e-mail address. 


1. Don't Let Go 

D5  - x577xx  
G5  - 355xxx  
F#5 - 244xxx  
B5  - x244xx  
E5  - 022xxx  
A5  - x022xx  



   D5                                              G5 
       Ooh whoa oh whoa 
E|-10-10-10-10-10-10-10-10-10-10-10-10-10-10-10-10-10-10-10-10-10-10-10-10--  
B|--------------------------------------------------------------------------  
G|-7--7--7--7--7--7--7--7--7--7--7--7--7--7--7--7--7--7--7--7--7--7--7--7---  
D|--------------------------------------------------------------------------  
A|--------------------------------------------------------------------------  
E|--------------------------------------------------------------------------  

E|-10-10-10-10-10-10-10-10--  
B|--------------------------  
G|-7--7--7--7--7--7--7--7---  
D|--------------------------  
A|--------------------------  
E|--------------------------  



    D5                         G5  
Any time that you want I'll be here in your arms  
      D5                   G5  
Silently holding on to the girl with the charms  
       F#5           B5             E5              A5  
But if there comes a day you should turn your heart away  
        F#5        B5            E5               A5  
I'll be down on my knees begging for that girl to stay  
          D5       G5 
Don't let go, Ooh oh whoa 
          D5       G5 
Don't let go, Ooh oh whoa 
   D5     G5 
Anything you desire, I will set at your feet 
       D5        G5 
With a kiss in the air for the gods to receive  
       F#5           B5     E5     A5 
But if there comes a day you should turn your heart away 
F#5    B%  E5   A5 
I'll be down on my knees begging for that girl to stay  

Bridge:  
   F#5                     B5 
      Confrontations in my mind  
E|--------------------------------------------------------  
B|--------------------------------------------------------  
G|-----------------------------7-7-7-7-6-6-6-6-4-4-4-4-7--  
D|--------------------------------------------------------  
A|-----------------------------5-5-5-5-4-4-4-4-2-2-2-2-5--  
E|--------------------------------------------------------  

   G5      C5 
      Got me running out of time  
E|--------------------------------------------  
B|--------------------------------------------  
G|------------------------------9-9-9-9-9/11--  
D|--------------------------------------------  
A|------------------------------7-7-7-7-7/-9--  
E|--------------------------------------------  


          D5       G5 
Don't let go, Ooh oh whoa 
          D5       G5 
Don't let go, Ooh oh whoa 


Solo: 
  D5       A5  
E|-----------------------------------------  
B|-----------------------------------------  
G|-----------------------------------------  
D|--4--5--7----7-7--7----7/9--5----5-5--5--  
A|-----------------------------------------  
E|-----------------------------------------  



       F#5           B5     E5     A5 
But if there comes a day you should turn your heart away 
F#5    B5  E5   A5 
I'll be down on my knees begging for that girl to stay  

F#5  B5 
    Confrontations in my mind 
G5   C5 
    Got me running out of time 
          D5       G5 
Don't let go, Ooh oh whoa 
          D5       G5 
Don't let go, Ooh oh whoa 
          D5       G5 
Don't let go, Ooh oh whoa 
          D5       G5 
Don't let go, Ooh oh whoa 




2. Photograph  

A5     - 577xxx  
F#5    - 244xxx  
D5/A   - 5577xx  
E5/B   - 7799xx  
C#5/G# - 4466xx  
B5/F#  - 2244xx  
G5     - 355xxx  
E5     - 022xxx  

(feedback)  

       A5               F#5  
If you want it, you can have it  
           D5/A            E5/B               F#5  
But you've got to learn to reach up there and grab it  
      D5/A      E5/B        A5  
Cause everybody wants some love (oh baby)  
D5/A              E5/B    A5  
Shooting from the stars above (oh baby)  
    D5/A                 E5/B  
And though my heart will break  
        C#5/G#            F#5  
There's more that I could take  
D5/A              E5/B  
I could never get enough  

       A5    F#5 
If you need it, you should show it 
  D5/A        E5/B F#5 
Cause you might play so monastic that you blow it 
      D5/A      E5/B        A5  
Cause everybody wants some hope (oh baby)  
D5/A               E5/B    A5  
Something they can barely know (oh baby)  
    D5/A                 E5/B  
And though my heart will break  
        C#5/G#            F#5  
There's more that I could take  
D5/A              E5/B  
I can never let it go  

C#5/G#             F#5         A5  
       It's in the photograph  
C#5/G#             F#5         A5  
       It's in the photograph  
D5/A               B5/F#         G5        E5  
       It's in the photograph of love  

Solo: 

  A5      F#5 D5/A   E5/B      A5 
E|--------------------------------------------------------------------------  
B|--------------------------------------------------------------------------  
G|--6------------------6------------------6-------------6-7p6-6-------------  
D|-----4--7-7-7-7-7-7-----4--7-7-7-7-7-7-----4--7-7-7/9----------9-9-7-7-7--  
A|--------------------------------------------------------------------------  
E|--------------------------------------------------------------------------  

      D5/A E5/B   A5 
Cause everybody wants a dream (oh baby)  
D5/A    E5/B    A5 
Something they can barely see (oh baby)  
    D5/A                 E5/B  
And though my heart will break  
        C#5/G#            F#5  
There's more that I could take  
D5/A               E5/B  
I can never let it be  
C#5/G#             F#5         A5  
       It's in the photograph  
C#5/G#             F#5         A5  
       It's in the photograph  
D5/A               B5/F#         G5        E5  
       It's in the photograph of love   
       A5               F#5  
If you blew it, don't reject it  
       D5/A           E5/B      A5  
Just a drawing of the plans and re-erect it  
       D5/A           E5/B      A5  
Just a drawing of the plans and re-erect it 
       D5/A           E5/B      A5  
Just a drawing of the plans and re-erect it 

End on A5  




3. Hash Pipe 

Verse: 

At the end of every 2 bars during the intro and after every 4 bars in the 
verses the last C5 isn't palm muted. 

  P.M........................... 
E|---------------------------------- 
B|---------------------------------- 
G|---------------------------------- 
D|-2-2-4-5-2-2-4-5-2-2-4-5-2-2-4-5-- 
A|-0-0-2-3-0-0-2-3-0-0-2-3-0-0-2-3-- 
E|---------------------------------- 



Chorus: 

   D5 
E|-------------------------------- 
B|-3---3---3-3---3---3-3-3-3---3-- 
G|-2---2---2-2---2---2-2-2-2---2-- 
D|-0---0---0-0---0---0-0-0-0---0-- 
A|-0---0---0-0---0---0-0-0-0---0-- 
E|-------------------------------- 
   1   2   3 + 4 + 1 + 2 + 3   4  

E|---------------------------------- 
B|---------------------------------- 
G|-2-2-4-5-2-2-4-5-2-2-4-5-2-2-4-5-- 
D|-2-2-4-5-2-2-4-5-2-2-4-5-2-2-4-5-- 
A|-0-0-2-3-0-0-2-3-0-0-2-3-0-0-2-3-- 
E|---------------------------------- 

   D5 
E|-------------------------------- 
B|-------------------------------- 
G|-7---7---7-7---7---7-7-7-7---7-- 
D|-7---7---7-7---7---7-7-7-7---7-- 
A|-5---5---5-5---5---5-5-5-5---5-- 
E|-------------------------------- 
   1   2   3 + 4 + 1 + 2 + 3   4 

   F5    E5 
E|------------------------------------------------------------------ 
B|------------------------------------------------------------------ 
G|------------------------------------------------------------------ 
D|--3---3---3-3---3---3-3-3-3---3---2---2---2-2---2---2-2-2-2---2--- 
A|--3---3---3-3---3---3-3-3-3---3---2---2---2-2---2---2-2-2-2---2--- 
E|--1---1---1-1---1---1-1-1-1---1---0---0---0-0---0---0-0-0-0---0--- 
    (same rythm as before) 
    
   D5 
E|-------------------------------- 
B|-------------------------------- 
G|-7---7---7-7---7---7-7-7-7---7-- 
D|-7---7---7-7---7---7-7-7-7---7-- 
A|-5---5---5-5---5---5-5-5-5---5-- 
E|-------------------------------- 

   C5    B5 
E|------------------------------------------------------------------ 
B|------------------------------------------------------------------ 
G|--5---5---5-5---5---5-5-5-5---5---4---4---4-4---4---4-4-4-4---4--- 
D|--5---5---5-5---5---5-5-5-5---5---4---4---4-4---4---4-4-4-4---4--- 
A|--3---3---3-3---3---3-3-3-3---3---2---2---2-2---2---2-2-2-2---2--- 
E|------------------------------------------------------------------ 

On 2nd and 3rd Chorus: 

   G 
E|---------------------------------- 
B|---------------------------------- 
G|---------------------------------- 
D|-0-0-0-0-0-0-0-0-0-0-0-0-0-0-0-0-- 
A|-2-3-2-3-2-3-2-3-2-3-2-3-2-3-2-3-- 
E|-3-3-3-3-3-3-3-3-3-3-3-3-3-3-3-3-- 



Solo (Verse Riff): 

E|---------------------------------------------- 
B|-13-13-13-13-12-12-12-12-10-10-10-10-8-8-8-8-- 
G|---------------------------------------------- 
D|-10-10-10-10-9--9--9--9--7--7--7--7--5-5-5-5-- 
A|---------------------------------------------- 
E|---------------------------------------------- 

E|-12-12-12-12-10-10-10-10-8-8-8-8-7-7-7-7-- 
B|------------------------------------------ 
G|-9--9--9--9--7--7--7--7--5-5-5-5-4-4-4-4-- 
D|------------------------------------------ 
A|------------------------------------------ 
E|------------------------------------------ 

E|-15-15-15-15-14-14-14-14-12-12-12-12-10-10-10-- 
B|----------------------------------------------- 
G|-12-12-12-12-11-11-11-11-9--9--9--9--7--7--7--- 
D|----------------------------------------------- 
A|----------------------------------------------- 
E|----------------------------------------------- 

E|-------------------------------------------------- 
B|-12-12-12-12-10-10-10-10-12-12-12-12-10-10-10-10-- 
G|-------------------------------------------------- 
D|-9--9--9--9--7--7--7--7--9--9--9--9--7--7--7--7--- 
A|-------------------------------------------------- 
E|-------------------------------------------------- 



Lyrics: 

I can't help my feelings, I'll go out of my mind 
These players come to get me 'cause they'd like my behind 
I can't love my business if I can't get a trick 
Down on Santa Monica where tricks are for kids 

Oh, come on and kick me 
Oh, come on and kick me 
Come on and kick me 
You've got your problems 
I've got my eye swipe 
You've got your big G's 
I've got my hash pipe 

I can't help my boogies they get out of control 
I know that you don't care but I want you to know 
The knee-stocking flavor is a favorite treat 
Of men that don't bother with the taste of a teat 

Oh, come on and kick me 
Oh, come on and kick me 
Come on and kick me 
You've got your problems 
I've got my eye swipe 
You've got your big G's 
I've got my hash pipe 
I've got my hash pipe 

Oh, come on and kick me 
Oh, come on and kick me 
Come on and kick me 
You've got your problems 
I've got my eye swipe 
You've got your big G's 
I've got my hash pipe 
I've got my hash pipe 

I've got my hash pipe 
I've got my hash pipe 




4. Island In The Sun  

Riff 1: 

E|---3---3--x--5--x---------x--3--3-- 
B|---5---5--x--5--x--7-7-7--x--3--3-- 
G|---4---4--x--5--x--7-7-7--x--4--4-- 
D|-------------------7-7-7----------- 
A|----------------------------------- 
E|----------------------------------- 

Riff 2: 

     Em       Am        D        G  
E|---7--7--x--5--5--x--5--5--x--3-3-3-- 
B|---8--8--x--5--5--x--7--7--x--3-3-3-- 
G|---9--9--x--5--5--x--7--7--x--3-3-3-- 
D|---9--9--x--7--7--x--7--7--x--5-5-5-- 
A|---7--7--x--7--7--x--5--5--x--5-5-5-- 
E|------------5--5--x-----------3-3-3-- 

Riff 3: 

E|--------------------------------------------------- 
B|-----8-----8-----8-----8-----7-----8-----8-----8--- 
G|--9-----9-----9-----9-----7-----7-----7-----7------ 
D|--------------------------------------------------- 
A|--------------------------------------------------- 
E|--------------------------------------------------- 


Chorus: 

     D5      G5      D5      G5 
E|-------------------------------------------------------------------- 
B|-------------------------------------------------------------------- 
G|---7-7-7-7-7-7-7-7-----------------7-7-7-7-7-7-7-7------------------ 
D|---7-7-7-7-7-7-7-7-5-5-5-5-5-5-5-5-7-7-7-7-7-7-7-7-5-5-5-5-5-5-5-5-- 
A|---5-5-5-5-5-5-5-5-5-5-5-5-5-5-5-5-5-5-5-5-5-5-5-5-5-5-5-5-5-5-5-5-- 
E|-------------------3-3-3-3-3-3-3-3-----------------3-3-3-3-3-3-3-3-- 

    C5      A5      D5 
E|-------------------------------------------------------------------- 
B|-------------------------------------------------------------------- 
G|---5-5-5-5-5-5-5-5-----------------7-7-7-7-7-7-7-7-7-7-7-7-7-7-7-7-- 
D|---5-5-5-5-5-5-5-5-7-7-7-7-7-7-7-7-7-7-7-7-7-7-7-7-7-7-7-7-7-7-7-7-- 
A|---3-3-3-3-3-3-3-3-7-7-7-7-7-7-7-7-5-5-5-5-5-5-5-5-5-5-5-5-5-5-5-5-- 
E|-------------------5-5-5-5-5-5-5-5---------------------------------- 



Solo (Verse Riff): 

E|------------------------------------------------------- 
B|------------------------------------------------------- 
G|---7--9--7--------------------------------------------- 
D|------------10--9--10--9--------7/9--7----------------- 
A|----------------------------10----------10--9--10--10-- 
E|------------------------------------------------------- 

E|------------------------------------------------------- 
B|------------------------------------------------------- 
G|---7--9--7--------------------------------------------- 
D|------------10--9--10--9--------7/9--7----------------- 
A|----------------------------10----------10--9--10--10-- 
E|------------------------------------------------------- 

E|-------------------------------------------------- 
B|-----8-----8-----8-----8-----7-----7-----8-----8-- 
G|--9-----9-----9-----9-----7-----7-----7-----7----- 
D|-------------------------------------------------- 
A|-------------------------------------------------- 
E|-------------------------------------------------- 


Lyrics:  

Hip Hip 
Hip Hip 
Hip Hip 
Hip Hip 

When you're on a holiday 
You can't find the words to say 
All the things that come to you 
And i wanna feel it, too 

On an island in the sun 
We'll be plannin' havin' fun 
And it makes me feel so fine I can't control my brain 

Hip Hip 
Hip Hip 
Hip Hip 
Hip Hip 

When you're on a golden sea 
You don't need no memory 
Just a place to call your own 
As we drift into the zone 

On an island in the sun 
We'll be plannin' havin' fun 
And it makes me feel so fine I can't control my brain 

We'll run away together 
We'll spend some time forever 
We'll never feel that anymore 

Hip Hip 
Hip Hip 
Hip Hip 
Hip Hip 

On an island in the sun 
We'll be plannin' havin' fun 
And it makes me feel so fine I can't control my brain 

We'll run away together 
We'll spend some time forever 
We'll never feel that anymore 

You'll never feel that anymore, no, no 
We'll never feel that anymore, no, no 
No, no 
No, no 




5. Crab 

Drop D Tuning  DADGBE 

C5   - x355xx 
E5   - 322xxx 
D5   - 00023x 
A5   - x022xx 
E5   - 222xxx 
F5   - 333xxx 

Intro: 

   C5    E5    D    A5 
E|------------------------------------------------------------------ 
G|------------------------------------------------------------------ 
B|-5-5-5-5-5-5-5-4---4-4-4-4-4-4-4-7-7-7-7-7-7-7-5---5-5-5-5-5-5-5-- 
D|------------------------------------------------------------------ 
A|-3-3-3-3-3-3-3-2---2-2-2-2-2-2-2-5-5-5-5-5-5-5-3---3-3-3-3-3-3-3-- 
D|------------------------------------------------------------------ 

   C5    D5    E5      N.C. 
E|----------------------------------------------------------------- 
B|----------------------------------------------------------------- 
G|-2-2-2-2-2-2-2-2-2-2-2-2-2-4---1---1-1-1-1-1-1-1-1-------0-1-2--- 
D|---------------------------------------------------0-1-2--------- 
A|-3-3-3-3-3-3-3-3-3-3-3-3-3-5---2---2-2-2-2-2-2-2-2--------------- 
D|----------------------------------------------------------------- 



 A5     F5        D5    E5      F5 
Crab if you want her, she won't be coming down (down) 
C5      F5   E5 
Down (down), down (down), down (down) 
F5     C5       F5    G5    C5 
Crab if you want her, she won't be coming down 
 A5     F5       D5  E5   F5 
Crab if you need it, she put her knickers on (on) 
C5  F5   E5 
On (on), on (on), on (on) 
F5     C5      F5  G5   C5 
Crab if you need it, she put her knickers on 
    C5        E5    D5 A5 
She said she's feeling lonely, and I say that's OK 
    C5     D5  E5 N.C. 
She won't be coming back 'round here, no way 


Solo: 

    A5     F5  D5  E5   F5 C5      F5  E5 
E|----------------------------------------------------------------------- 
B|----------------------------------------------------------------------- 
G|--5------------5----------------------9--7h9p7\5---------------9~~~~~-- 
D|------7---5-7------7---5-7--5h7p5\3----------------7--5h7p5\3---------- 
A|--------7------------7------------------------------------------------- 
D|----------------------------------------------------------------------- 

    F5      C5    F5    G5  C5 
E|------------------------------------------------- 
B|-----------------8-----8------------------------- 
G|--9---7----7-9-------9---9--7-------------------- 
D|--------10---------------------10~~~~~~~~~~~~---- 
A|------------------------------------------------- 
D|------------------------------------------------- 


    C5        E5    D5 A5 
She said she's feeling lonely, and I say that's Ok 
    C5     D5  E5 N.C. 
She won't be coming back 'round here, no way 
 A5     F5     D5 E5    F5 
Crab at the booty, 'taint gonna do no good (good) 
C5      F5   E5 
Good (good), good (good), good (good) 
F5     C5     F5 G5    C5 
Crab at the booty, 'taint gonna do no good 
    F5 C5 F5     G5   C5 
No, crab at the booty, 'taint gonna do no good 


End on C5 




6. Knock-down Drag-out 


C5/G  - 3355xx 
A5    - x022xx 
B5/F# - 2244xx 
G5    - 355xxx 
F5    - 133xxx 
E5    - 022xxx 


     C5/G     A5  B5/F#  G5   C5 
E|----------------------------------------------------- 
B|----------------------------------------------------- 
G|--------------------------------9--9-~~~~~~~~~------- 
D|--10-9-10~~~~~~~~~~~~~~~~-------10-10~~~~~~~~~------- 
A|----------------------------------------------------- 
E|----------------------------------------------------- 

[ Tab from: http://www.guitartabs.cc/tabs/w/weezer/green_tab.html ]
    C5/G   F5   G5      C5/G 
Any day now you'll call me up on the phone 
C5/G    F5       G5  C5/G 
Say you love me more than you ever did before 
     E5     F5 
It's all that I can do right now 
   G5  A5 
To make it up to you somehow 
    A5    F5  G5 
And meet you on the other side of home 
        C5       F5       G5    C5/G 
Take no prisoners here in this knock-down drag-out war 
    C5     F5     G5 C5/G 
That we're waging on each other forever more 
     E5     F5 
It's all that I can do right now 
   G5  A5 
To make it up to you somehow 
    A5    F5  G5 
And meet you on the other side of home 

    C5/G  A5      B5/F# G5    C5 
Say you love me now 
E|----------------------------------------------------------- 
B|----------9-9-9-10---10-10-11---11-11-12---12-12-13-------- 
G|----------------------------------------------------------- 
D|----------6-6-6-7----7--7--8----8--8--9----9--9--10-------- 
A|----------------------------------------------------------- 
E|----------------------------------------------------------- 


Solo: 
 C5/G       F5       G5      C5/G 
E|---------------------------------------------------------- 
B|---------------------------------------------------------- 
G|--9-9--9------9--9----9---9----9--9--7---7---5-7---9------ 
D|---------10---10-10---10--10---10-10-9---9---7-9---10----- 
A|---------------------------------------------------------- 
E|---------------------------------------------------------- 

 C5/G       F5       G5      C5/G 
E|---------------------------------------------------------- 
B|---------------------------------------------------------- 
G|--9-9--9------9--9----9---9----9--9--7---7---5-7---9------ 
D|---------10---10-10---10--10---10-10-9---9---7-9---10----- 
A|---------------------------------------------------------- 
E|---------------------------------------------------------- 


     E5     F5 
It's all that I can do right now 
   G5  A5 
To make it up to you somehow 
    A5    F5  G5 
And meet you on the other side of home 
        C5       F5       G5    C5/G 
Take no prisoners here in this knock-down drag-out war 
    C5     F5     G5 C5/G 
That we're waging on each other forever more 
    C5     F5     G5 C5/G 
That we're waging on each other forever more 


End on C5 




7. Smile 

E5     - 022xxx 
B5     - x244xx 
A5     - x022xx 
F#5    - 244xxx 
B5/F#  - 2244xx 
A6     - x042xx 
C#5/G# - 4466xx 
E5 (2) - x799xx 
E5 (3) - 0799xx 
E6     - 042xxx 
G#5    - 466xxx 
C#m    - x46630 


    E5 
E|---------------------------------------------------- 
B|---------------------------------------------------- 
G|---------------------------------------------------- 
D|---------------------------------------------------- 
A|-----6/7--7--7-7-9\7--7--7---6/7--7--7-7-9\7--7--7-- 
E|---------------------------------------------------- 

    B5 
E|---------------------------------------------------- 
B|---------------------------------------------------- 
G|---------------------------------------------------- 
D|-----6/9---9---9--9--11\9---9---9----6/9-\6/9------- 
A|-----7/10--10--10-10-12\10--10--10---6/10\6/10------ 
E|---------------------------------------------------- 


E5    A5 
Open the door and let your love come down 
B5 F#5 
Over the wall, you're spinning 'round and 'round 
B5/F#     A6   C#5/G#   E5 (2) 
'Cause you wanted some love, I'll make it happen 
       A5      B5  E5    B5/F# 
'Cause I don't wanna break, your fine face I can't take 
    A5   B5 
The way you wanna wrap me up, inside your smile 
E5     A5 
Open your heart and let the good stuff out 
B5  F#5 
Water me girl and let me ease the drought 
   B5/F#     A6   C#5/G#  E5 (2) 
'Cause you wanted some love, I'll make it happen 
       A5      B5  E5    B/F# 
'Cause I don't wanna break, your fine face I can't take 
    A5   B5 
The way you wanna wrap me up, inside your smile 
A5         B5 E5 (3)   E6   B#5/F#  G#5 
I can't be gone, darling, for very long,       no 
A5 
Never know what you're going to do, standing there deep in front of you 
B5/F# 
Take a look in between my eyes, because I'm back, yeah 


Solo: 

    E5    A5      B5        F#5 
E|---------------------------------------------------------- 
B|---------------------------------------------------------- 
G|---------------------------------------------------------- 
D|--6h9-6h9--6h9-6h9--9--9---9h11-9h11--9h11-9h11--11--11--- 
A|---------------------------------------------------------- 
E|---------------------------------------------------------- 

   B5/F#       A6    C#5/G# 
E|---------------------------------------------------------- 
B|---------------------------------------------------------- 
G|---------------------------------------------------------- 
D|--9--9--9--9\7---7-7\6~~~~~~------------------------------ 
A|---------------------------------------------------------- 
E|---------------------------------------------------------- 


       A5      B5  E5    B/F# 
'Cause I don't wanna break, your fine face I can't take 
    A5   B5 
The way you wanna wrap me up, inside your smile 
A5         B5 E5 (3)   E6   B#5/F#  G#5 
I can't be gone, darling, for very long,       no 
A5 
Never know what you're going to do, standing there deep in front of you 
B5/F# 
Take a look in between my eyes, because I'm back, yeah 
E5      A5 
Give me a chance, if you can force yourself 
B5    F#5 
Look at me girl and get up off your shelf 
   B5/F#     A6   C#m 
'Cause you wanted some love, I'll make it happen 




8. Simple Pages 


C#5/G# - 4466xx 
B5/F#  - 2244xx 
A5     - 577xxx 
E5     - 022xxx 
F#5    - 244xxx 
D5/A   - 5577xx 
E5 (2) - 799xxx 



    C#5/G#     B5/F# 
E|------------------------------------------------------------------- 
B|------------------------------------------------------------------- 
G|--6-6-6-6-6-6-6-6-6-6-6-6-6-6-7-4-4-4-4-4-4-4-4-4-1-----2-----4---- 
D|------------------------------------------------------------------- 
A|--4-4-4-4-4-4-4-4-4-4-4-4-4-4-5-2-2-2-2-2-2-2-2-2------------------ 
E|------------------------------------------------------------------- 


A5 
Gimme some love, gimme some love, gimme some 
E5 
I want you to know 
F#5 
Gimme some love, gimme some love 
D5/A 
Sugar thats the wrong wrong way to go 
A5 
Open your arms, open your arms honey 
E5 
And come right back home to me 
F#5 
Gimme some love, gimme some love 
A5 
Sugar thats the wrong wrong way to be 
C#5/G#    A5 
Can't you see 
D5  E5 (2)  A5 
We're to be this time 
       E5    C#5/G# 
Simple pages on my mind 
A5 
Kick it on back, kick it on back 
   E5 
Kick it on back to what you know 
F#5 
Gimme some love, gimme some love  
     D5/A 
Sugar on the hard rock radio 
A5 
Where they play tunes, where they play tunes 
E5 
Where they play riffs with the hard rock beat 
F#5 
Gimme some love, gimme some love 
       D5/A 
Sugar from the top with the old school meat 
C#5/G#    A5 
Can't you see 
D5  E5 (2)  A5 
We're to be this time 
       E5    C#5/G# 
Simple pages on my mind 
C#5/G# B/F# 
Gimme something I can believe, oh baby 


    A5     E5 
E|--------------------------------------------------- 
B|--------------------------------------------------- 
G|--14-14-14-14-14-14-14-14-13-13-13-11/13----------- 
D|--------------------------------------------------- 
A|--12-12-12-12-12-12-12-12-11-11-11--9/11----------- 
E|--------------------------12-12-12-11/12----------- 

    F#5     D5/A 
E|--------------------------------------------------- 
B|--------------------------------------------------- 
G|--14-14-14-14-14-14-14-14-14-14-14-14-14-14-14-14-- 
D|--------------------------------------------------- 
A|--12-12-12-12-12-12-12-12-12-12-12-12-12-12-12-12-- 
E|--14-14-14-14-14-14-14-14-14-14-14-14-14-14-14-14-- 

    A5     E5 
E|--------------------------------------------------- 
B|--------------------------------------------------- 
G|--14-14-14-14-14-14-14-14-13-13-13-11-13-13-13-13-- 
D|--------------------------------------------------- 
A|--12-12-12-12-12-12-12-12-11-11-11-11-11-11-11-11-- 
E|--------------------------12-12-12-12-12-12-12-12-- 

    F#5     D5/A 
E|--------------------------------------------------- 
B|--------------------------------------------------- 
G|--14-14-14-14-14-14-14-14-14-14-14-14-14-14-14-14-- 
D|--------------------------------------------------- 
A|--12-12-12-12-12-12-12-12-12-12-12-12-12-12-12-12-- 
E|--14-14-14-14-14-14-14-14-14-14-14-14-14-14-14-14-- 



C#5/G#    A5 
Can't you see 
D5  E5 (2)  A5 
We're to be this time 
       E5    C#5/G# 
Simple pages on my mind 
A5 
Kick it on back, kick it on back 
   E5 
Kick it on back to what you know 
F#5 
Gimme some love, gimme some love 
     D5/A 
Sugar on the hard rock radio 
      A5 
So gimme some love 
   E5 
Gimme some love 
   F#5 
Gimme some love 
   D5/A 
Gimme some love 
   A5 
Gimme some 
  E5 
Can't you see 
    F#5 
You're just me 
   D5/A        A5 
Turn these pages of my mind 
E5  F#5 D5/A 
Oh, oh 



End on A5 




9. Glorious Day 

F#5    - 244xxx 
A5     - 577xxx 
E5     - 022xxx 
B5/F#  - 2244xx 
G#5    - 466xxx 
C#5/G# - 4466xx 
D5/A   - 5577xx 


Guitar 1: 

    A     A/C#     A     A/C# 
E|-------------------------------------------------------------------- 
B|-------------------------------------------------------------------- 
G|-------------------------------------------------------------------- 
D|----7---7---7---7---7---7---7---7---7---7---7---7---7---7---7---7--- 
A|------------------4---4---4---4-------------------4---4---4---4----- 
E|--5---5---5---5-------------------5---5---5---5--------------------- 


Guitar 2: 

E|---------------------------------------------------------------------- 
B|---------------------------------------------------------------------- 
G|----------6-7-9-7---6-----------6---------6-7-9-7---6-----------6h7p6- 
D|------------------------7---9-------9-------------------7---9--------- 
A|---------------------------------------------------------------------- 
E|---------------------------------------------------------------------- 


Guitar 1: 

    A     A/C#     G#5     C#5 
E|-------------------------------------------------------------------- 
B|-------------------------------------------------------------------- 
G|--------------------------------------------------6-6-6-6-6-6-6-6--- 
D|----7---7---7---7---7---7---7---7-6-6-6-6-6-6-6-6-6-6-6-6-6-6-6-6--- 
A|------------------4---4---4---4---6-6-6-6-6-6-6-6-4-4-4-4-4-4-4-4--- 
E|--5---5---5---5-------------------4-4-4-4-4-4-4-4------------------- 

Guitar 2: 

E|-------------------------------------------------------------------- 
B|-------------------------------------------------------------------- 
G|----------6-7-9-7---6-----------6-------7---6--------6-6-6-6-6-6-6-- 
D|------------------------7---9-------9------------------------------- 
A|-----------------------------------------------------4-4-4-4-4-4-4-- 
E|-------------------------------------------------------------------- 



      F#5   A5 
Gonna make my move, gonna make it stay 
      E5   B5/F#    A5 
Gonna make it last, nevermind the past, living for today 
     G#5 B5/F#    C#5/G# 
Hey, hey (hey), you know what you want me to say 
D5/A       C#5/G#     B5/F# 
Right, right, fight, fight, we can start a glorious day 
      F#5      A5 
Gonna take my chance, gonna rock and dance 
      E5        B5/F#   A5 
Gonna hit the ground, with a brand new sound, looking for romance 
     G#5 B5/F#    C#5/G# 
Hey, hey (hey), you know what you want me to say 
D5/A       C#5/G#     B5/F# 
Right, right, fight, fight, we can start a glorious day 
A5  D5/A A5        D5/A 
Glorious children on my mind, glorious wastings of my time 
 D5/A     G#5      C#5 
Glorious plans we make up, forcing things in line 

     F#5  A5 E5     B5/F# A5 
E|-------------------------------------------------------------------- 
B|--7-7-5--------7-7-5------------------------------------------------ 
G|--------6------------6---------------------------------------------- 
D|-----------8------------7----7-7-7-7--9--9-9-9-9--9--9-9-9-9--7----- 
A|-------------------------------------------------------------------- 
E|-------------------------------------------------------------------- 


     G#5 B5/F#    C#5/G# 
Hey (hey), hey (hey), you know what you want me to say 
D5/A       C#5/G#     B5/F# 
Right, right, fight, fight, we can start a glorious day 
A5  D5/A A5        D5/A 
Glorious children on my mind, glorious wastings of my time 
 D5/A     G#5      C#5 
Glorious plans we make up, forcing things in line 
      F#5     A5 
Gonna rock it out, gonna scream and shout 
    E5    B5/F#   A5 
Gonna do it right, standing in the light, perchin' on the clouds 
    E5    B5/F#   A5 
Gonna do it right, standing in the light, perchin' on the clouds 
    E5    B5/F#   A5 
Gonna do it right, standing in the light, perchin' on the clouds 

Hey 


End on A5 




10. O Girlfriend 


A5   - 577xxx 
D5   - x577xx 
B5   - x244xx 
E5   - 022xxx 
F#5  - 244xxx 
C#5  - x466xx 
D5/B - 7577xx 
G5   - 355xxx 


Guitar 1: 

    A 
E|--------------------------------------------------------------------------- 
B|--------------------------------------------------------------------------- 
G|--------------------------------------------------------------------------- 
D|--7---7---7--7----7----7---7---7---7--7---7---7--7----7----7---7---7---7--- 
A|--4---4---4--4----4----4---4---4---4--4---4---4--4----4----4---4---4---4--- 
E|--5---5---5--5----5----5---5---5---5--5---5---5--5----5----5---5---5---5--- 
    1   2   3  + 4  +  1 + 2 + 3 + 4 +  1   2   3  + 4  +  1 + 2 + 3 + 4 + 

Guitar 2: 

E|---------------------------------------------------------------------------- 
B|----------14-14---14---7---10--14--14---------14-14-14--7--10--14--12~~~~--- 
G|---------------------------------------------------------------------------- 
D|----------11-11---11---4----7--11--11---------11-11-11--4---7--11---9~~~~--- 
A|---------------------------------------------------------------------------- 
E|---------------------------------------------------------------------------- 


Guitar 1: 
    G5 
E|---------------------------------------------------------------------------------- 

B|---------------------------------------------------------------------------------- 

G|---------------------------------------------------------------------------------- 

D|--5---5---5--5----5----5-----5--5---5--5---5---5--5----5---5--5-5--5--5--5--5-5--- 

A|--5---5---5--5----5----5-----5--5---5--5---5---5--5----5---5--5-5--5--5--5--5-5--- 

E|--3---3---3--3----3----3-----3--3---3--3---3---3--3----3---3--3-3--3--3--3--3-3--- 

    1   2   3  + 4  +  1 +  2  +  3 + 4  +   1   2   3  + 4  +  1 +  2  +  3 + 4 
+ 

Guitar 2: 

E|---------------------------------------------------------------------------------- 

B|--(12)~~~~~~-----------12-12-12-13--12~~~~~~~~~~~~--------------12-12-12-13--12--- 

G|---------------------------------------------------------------------------------- 

D|--(9)~~~~~~------------9--9--9--10--9~~~~~~~~~~~~~--------------9--9--9--10--9---- 

A|---------------------------------------------------------------------------------- 

E|---------------------------------------------------------------------------------- 


A5     D5  B5 E5       A5 
I miss you and I wonder how you feel about me too 
       D5      B5       E5      A5 
Do you miss the way we would play and waste our time away? 
     D5  B5   E5 A5 
Suddenly, we're apart and I can't see you every night 
    D5  B5   E5     F#5 
Though we'd fight I loved you so much now I can't feel your touch 
   C#5 F#5 
Oh girlfriend 
       C#5 D5 
That's the end 
D5/B   G5 A5 
And I'm lost without your love, oh love 
D5    B5       E5        A5 
In your arms I was happy as a little boy could be 
       D5    B5     E5    A5 
Taking pills and mellowing out, now I just want to shout 
 D5  B5   E5    A5 
For your love 'cause I'm drifting further from you everyday 
D5     B5     E5  F#5 
Driving by your place every night I used to feel alright 
   C#5 F#5 
Oh girlfriend 
       C#5 D5 
That's the end 
D5/B   G5 A 
And I'm lost without your love, oh love 

Feeling fancies every night 
       G5 
When I dreamed to be alright, oh love, oh love 


Solo:  
    A5  D5     B5 E5   A5 
E|----------------------------------------------------------------------- 
B|----------------------------------------------------------------------- 
G|-----------------------------------------------4---4---6---7/9---9----- 
D|-----11-11---11-----9-11--11/12---11---9---7---6---6---7---9/11--11---- 
A|----------------------------------------------------------------------- 
E|----------------------------------------------------------------------- 

   B5   E5     A5 
E|------------------------------------------------------------------------ 
B|------------------------------------------------------------------------ 
G|--------------------------------------------------4--4---6---7/9---9---- 
D|--9--11--11/12--11---9--11---7--7/9----7p6\4----7-6--6---7---9/11--11--- 
A|------------------------------------------------------------------------ 
E|------------------------------------------------------------------------ 


   C#5 F#5 
Oh girlfriend 
       C#5 D5 
That's the end 
D5/B   G5 A5 
And I'm lost without your love, oh love 
D5    B5       E5        A5 
In your arms I was happy as a little boy could be 
       D5    B5     E5    A5 
Taking pills and mellowing out, now I just want to shout 

      D5      B5 
Do do do do do do do do 
    E5    A5 
Now I just want to shout 
      D5      B5 
Do do do do do do do do 
    E5    A5 
Now I just want to shout 


Throughout the song the solo is thrown in along with the 
vocals during verses and at the end of the song. 







And that's The Green Album by Weezer.  Enjoy. 

Jeremey Poparad 

E|--0--|-------------------0-----------------0--|--------------------------0------------------------0--| 

B|--0--|-------------------0-----------------0--|--------------------------0------------------------0--| 

G|--5--|-------------------0-----4---5---7---5--|--------------------------5--4-5-4-2---------------5--| 

D|--5--|-----2---4---5-----5--0h5-0h7-0h9----5--|--4-5-4-2-----------------5----------5-4-2-5-4-2-0-5--| 

A|--0--|--0h3-0h5-0h7------0-----------------0--|----------5-4-2-5-3-2-0---0------------------------0--| 

D|--0--|---------------0-0-0---------------0-0--|------------------------0-0------------------------0--| 


Stream - Tim Reynolds 

Comments