Weezer - Green Chords & Tabs

 

Green Chords & Tabs

Weezer Chords & Tabs

Version: 1 Type: Bass Tab 0 ratings
1 star 2 stars 3 stars 4 stars 5 stars
comments

Green Bass Tab

   
Weezer Green (album) Bass Tab

Don't Let Go

intro:
G|-----------------|----------------|----------------|----------------|
D|-0-0-0-0-0-0-0-0-|0-0-0-0-2-4-4-4-|----------------|5-5-5-4-4-4-2-2-|
A|-----------------|----------------|----------------|----------------|
E|-----------------|----------------|3-3-3-3-3-3-3-3-|----------------|


verse:
G|-----------------|----------------|----------------|----------------|
D|-0-0-0-0-0-0-0-0-|0-0-0-0-0-0-0-0-|----------------|----------------|
A|-----------------|----------------|----------------|----------------|
E|-----------------|----------------|3-3-3-3-3-3-3-3-|3-3-3-3-3-3-3-3-|

chorus:
G|-----------------|----------------|----------------|----------------|
D|-----------------|----------------|--------0---0---|----------------|
A|-----------------|----------------|2---2-----------|4---4---2---2---|
E|-2-2-2-2-2-2-2-2-|2-2-2-2-2-2-2-2-|----------------|----------------|

G|-----------------|----------------|----------------|----------------|
D|-----------------|----------------|----------------|----------------|
A|-----------------|----------------|0-0-0-0-0-0-0-0-|0-0-0-0-0-0-0-0-|
E|-0-0-0-0-0-0-0-0-|0-0-0-0-0-0-0-0-|----------------|----------------|

Photograph

Bridge 1:

G:-----------------------------------------------------|
D:-----------------------------------------------------|
A:-------5555------7777--------------------------------|
E:----------------------------55555555-----------------|


G:-----------------------------------------------------|
D:-----------------------------------------------------|
A:-5555--------------7777------------------------------|
E:-------------------------5555555---------------------|

G:-----------------------------------------------------|
D:-----------------------------------------------------|
A:-----5555-----------------7777-----------------------|
E:-----------------------------------------------------|

G:-----------------------------------------------------|
D:-----------------------------------------------------|
A:---------4444----------------------------------------|
E:---------------------------2222----------------------|

G:-----------------------------------------------------|
D:-----------------------------------------------------|
A:-55555555--------------------------------------------|
E:---------------------00000000------------------------|

Verse 2:

G:-----------------------------------------------------|
D:-----------------------------------------------------|
A:-----------------------------------------------------|
E:--------55555555------------22222222-----------------|

G:-----------------------------------------------------|
D:-----------------------------------------------------|
A:---------5555-------------7777--------------99999999-|
E:-----------------------------------------------------|

Bridge 2:

G:-----------------------------------------------------|
D:-----------------------------------------------------|
A:-------5555------7777--------------------------------|
E:-----------------------------55555555----------------|


G:-----------------------------------------------------|
D:-----------------------------------------------------|
A:-5555---------------7777-----------------------------|
E:---------------------------55555555------------------|

G:-----------------------------------------------------|
D:-----------------------------------------------------|
A:-----5555-----------------7777-----------------------|
E:-----------------------------------------------------|

G:-----------------------------------------------------|
D:-----------------------------------------------------|
A:---------4444----------------------------------------|
E:---------------------------2222----------------------|

G:-----------------------------------------------------|
D:-----------------------------------------------------|
A:-55555555-----------------77777777-------------------|
E:-----------------------------------------------------|

Chorus:

G:-----------------------------------------------------|
D:-----------------------------------------------------|
A:-44444444--------------------------------------------|
E:-------------------------2222------5555--------------|


G:-----------------------------------------------------|
D:-----------------------------------------------------|
A:-44444444--------------------------------------------|
E:-------------------------2222------5555--------------|


G:-----------------------------------------------------|
D:-----------------------------------------------------|
A:-55555555----22222222--------------------------------|
E:---------------------------3333333300000000----------|


Solo
G:-----------------------------------------------------|
D:-----------------------------------------------------|
A:-----------------5555777799999999--------------------|
E:-5555555522222222------------------------------------|

Bridge 3:

G:-----------------------------------------------------|
D:-----------------------------------------------------|
A:-------5555------7777--------------------------------|
E:-------------------------55555555--------------------|


G:-----------------------------------------------------|
D:-----------------------------------------------------|
A:-5555---------------7777-----------------------------|
E:---------------------------55555555------------------|


G:-----------------------------------------------------|
D:-----------------------------------------------------|
A:-----5555-----------------7777-----------------------|
E:-----------------------------------------------------|

G:-----------------------------------------------------|
D:-----------------------------------------------------|
A:---------4444----------------------------------------|
E:---------------------------2222----------------------|


G:-----------------------------------------------------|
D:-----------------------------------------------------|
A:-55555555-------------77777777-----------------------|
E:-----------------------------------------------------|
   Chorus:

G:-----------------------------------------------------|
D:-----------------------------------------------------|
A:-44444444--------------------------------------------|
E:-------------------------2222------5555--------------|

G:-----------------------------------------------------|
D:-----------------------------------------------------|
A:-44444444--------------------------------------------|
E:-------------------------2222------5555--------------|

G:-----------------------------------------------------|
D:-----------------------------------------------------|
A:-55555555----22222222--------------------------------|
E:---------------------------3333333300000000----------|

Verse 3:

G:-----------------------------------------------------|
D:-----------------------------------------------------|
A:-----------------------------------------------------|
E:--------55555555----------22222222-------------------|

G:-----------------------------------------------------|
D:-----------------------------------------------------|
A:-----------5555-----------7777-----------------------|
E:---------------------------------------55555555------|

G:-----------------------------------------------------|
D:-----------------------------------------------------|
A:-----------5555-----------7777-----------------------|
E:---------------------------------------55555555------|

G:-----------------------------------------------------|
D:-----------------------------------------------------|
A:-----------5555-----------7777-----------------------|
E:---------------------------------------55555555------|


Hash Pipe

G:-------------------------------------------------------------------|
D:-------------------------------------------------------------------|
A:--0-0-2-3-0-0-2-3-0-0-2-3-0-0-2-3-0-0-2-3-0-0-2-3------------------|
E:-------------------------------------------------------------------|

G:-----------------------------------------------------------------------------|
D:-----------------------------------------------------------------------------|
A:--555-5-55-55-5555----------------0-0-2-3-0-0-2-3-0-0-2-3-0-0-2-3------------|
E:-----------------------------------------------------------------------------|

G:--------------------------|
D:--------------------------|
A:--555-5-55-55-5555--------|
E:--------------------------|


G:-------------------------------------------------------------------------------------------|
D:-------------------------------------------------------------------------------------------|
A:--888-8-88-88-8888--777-7-77-77-7777--555-5-55-55-5555--333-3-33-33-3333--2-2-22-2-22-222--|
E:-------------------------------------------------------------------------------------------|

G:-------------------------------------------------------------------|
D:-------------------------------------------------------------------|
A:--0-0-2-3-0-0-2-3-0-0-2-3-0-0-2-3-0-0-2-3-0-0-2-3------------------|
E:-------------------------------------------------------------------|


G:-----------------------------------------------------------------------------|
D:-----------------------------------------------------------------------------|
A:--555-5-55-55-5555----------------0-0-2-3-0-0-2-3-0-0-2-3-0-0-2-3------------|
E:-----------------------------------------------------------------------------|

G:------------------------|
D:------------------------|
A:--555-5-55-55-5555------|
E:------------------------|

G:-------------------------------------------------------------------------------------------|
D:-------------------------------------------------------------------------------------------|
A:--888-8-88-88-8888--777-7-77-77-7777--555-5-55-55-5555--333-3-33-33-3333--2-2-22-2-22-222--|
E:-------------------------------------------------------------------------------------------|


G:------------------------------------|
D:------------------------------------|
A:--55-55-55-55-55-55-55-55-55--------|
E:------------------------------------|

G:-------------------------------------------------------------------|
D:-------------------------------------------------------------------|
A:--0-0-2-3-0-0-2-3-0-0-2-3-0-0-2-3-0-0-2-3-0-0-2-3------------------|
E:-------------------------------------------------------------------|


G:-----------------------------------------------------------------------------|
D:-----------------------------------------------------------------------------|
A:--555-5-55-55-5555----------------0-0-2-3-0-0-2-3-0-0-2-3-0-0-2-3------------|
E:-----------------------------------------------------------------------------|

G:--------------------------------------------------------------------|
D:--------------------------------------------------------------------|
A:--555-5-55-55-5555--------------------------------------------------|
E:--------------------------------------------------------------------|

G:-------------------------------------------------------------------------------------------|
D:-------------------------------------------------------------------------------------------|
A:--888-8-88-88-8888--777-7-77-77-7777--555-5-55-55-5555--333-3-33-33-3333--2-2-22-2-22-222--|
E:-------------------------------------------------------------------------------------------|

G:----------------------------------|
D:----------------------------------|
A:--55-55-55-55-55-55-55-55-55------|
E:----------------------------------|

G:-------------------------------------------------------------------|
D:-------------------------------------------------------------------|
A:--0-0-2-3-0-0-2-3-0-0-2-3-0-0-2-3-0-0-2-3-0-0-2-3------------------|
E:-------------------------------------------------------------------|

Island In the Sun

Intro:
G-------------|
D-------------|
A--5/7---7-0--|
E-------------|

Verse:
G--------------------|
D--2-2----0-0--------|  21x
A-----0-0-------1-2--|
E-------------3------|

Chorus Part 1:
G----------------------------------|
D----------------------------------|  2x
A--5-5-5-5-5-5-5-5-----------------|
E------------------3-3-3-3-3-3-3-3-|
[ Tab from: http://www.guitartabs.cc/tabs/w/weezer/green_btab.html ]
Chorus Part 2:
G-------------------------------------------------------------------|
D-------------------------------------------------------------------|
A--3-3-3-3-3-3-3-3-----------------5-5-5-5-5-5-5-5-5-5-5-5-5-5-5-5--|
E------------------5-5-5-5-5-5-5-5----------------------------------|

Verse:
G--------------------|
D--2-2----0-0--------|  10x
A-----0-0-------1-2--|
E-------------3------|

Chorus Part 1:
G----------------------------------|
D----------------------------------|  2x
A--5-5-5-5-5-5-5-5-----------------|
E------------------3-3-3-3-3-3-3-3-|

Chorus Part 2:
G-------------------------------------------------------------------|
D-------------------------------------------------------------------|
A--3-3-3-3-3-3-3-3-----------------5-5-5-5-5-5-5-5-5-5-5-5-5-5-5-5--|
E------------------5-5-5-5-5-5-5-5----------------------------------|

Verse:
G--------------------|
D--2-2----0-0--------|  Repeat Until End
A-----0-0-------1-2--|
E-------------3------|


Crab

Intro/Chorus
G-----------------|----------------|----------------|----------------|
D-----------------|----------------|----------------|----------------|
A-3-3-3-3-3-3-3-3-|----------------|5-5-5-5-5-5-5-5-|----------------|
E-----------------|0-0-0-0-0-0-0-0-|----------------|5-5-5-5-5-5-5-5-|

G-----------------|----------------|----------------|---------0-1-2--|
D-----------------|----------------|----------------|---0-1-2--------|
A-3-3-3-3-3-3-3-3-|----------------|----------------|----------------|
E-----------------|5-5-5-5-5-5-5-5-|0-0-0-0-0-0-0-0-|----------------|

Verse
G-----------------|----------------|----------------|----------------|
D-----------------|----------------|----------------|----------------|
A-0-0-0-0---------|0-0-0-0---------|----------------|3-3-3-3-3-3-3-3-|
E---------1-1-1-1-|--------0-0-0-0-|1-1-1-1-1-1-1-1-|----------------|

G-----------------|----------------|----------------|----------------|
D-----------------|----------------|----------------|----------------|
A-----------------|----------------|--------3-3-3-3-|----------------|
E-1-1-1-1-1-1-1-1-|0-0-0-0-0-0-0-0-|1-1-1-1---------|1-1-1-1-3-3-3-3-|

G-----------------|------------------|
D-----------------|------------------|
A-3-3-3-3-3-3-3-3-|3-3-3-3-3-3-3-3-3-|
E-----------------|------------------|


Knock Down drag-out War

G|-----------------|----------------|----------------|----------------|
D|-----------------|----------------|----------------|----------------|
A|-1-1-------------|3-3-------------|3---3-----3---3-|3---------------|
E|-------1---1-1-1-|------3---3-3-3-|----------------|----------------|

G|-----------------|----------------|----------------|----------------|
D|-----------------|----------------|----------------|----------------|
A|-3-3-3-0-3-3-3-0-|----------------|----------------|3-3-3-0-3-3-3-0-|
E|-----------------|1-1-1-0-1-1-1-0-|3-3-3-0-3-3-3-0-|----------------|


G|-----------------|----------------|----------------|----------------|
D|-----------------|----------------|----------------|----------------|
A|-----------------|----------------|----------------|----------------|
E|-0-0-0-0-0-0-0-0-|1-1-1-1-1-1-1-1-|3-3-3-3-3-3-3-3-|4-4-4-4-4-4-4-4-|


G|-----------------|----------------|----------------|----------------|
D|-----------------|0-0-0-0-0-0-0-0-|----------------|----------------|
A|-0-0-0-0-0-0-0-0-|----------------|3---3-----3---3-|3---------------|
E|-----------------|----------------|----------------|----------------|


G|-----------------|----------------|----------------|----------------|
D|-----------------|----------------|----------------|----------------|
A|-3-3-3-0-3-3-3-0-|----------------|----------------|3-3-3-0-3-3-3-0-|
E|-----------------|1-1-1-0-1-1-1-0-|3-3-3-0-3-3-3-0-|----------------|


G|-----------------|----------------|----------------|----------------|
D|-----------------|----------------|----------------|----------------|
A|-----------------|----------------|----------------|----------------|
E|-0-0-0-0-0-0-0-0-|1-1-1-1-1-1-1-1-|3-3-3-3-3-3-3-3-|4-4-4-4-4-4-4-4-|

G|-----------------|----------------|----------------|----------------|
D|-----------------|0-0-0-0-0-0-0-0-|----------------|----------------|
A|-0-0-0-0-0-0-0-0-|----------------|3---3-----3---3-|3---------------|
E|-----------------|----------------|----------------|----------------|

G|-----------------|----------------|----------------|----------------|
D|-----------------|----------------|----------------|----------------|
A|-1-1-------------|3-3-------------|3---3-----3---3-|3---------------|
E|-------1---1-1-1-|------3---3-3-3-|----------------|----------------|

G|-----------------|----------------|----------------|----------------|
D|-----------------|----------------|----------------|----------------|
A|-3-3-3-0-3-3-3-0-|----------------|----------------|3-3-3-0-3-3-3-0-|
E|-----------------|1-1-1-0-1-1-1-0-|3-3-3-0-3-3-3-0-|----------------|

G|-----------------|----------------|----------------|----------------|
D|-----------------|----------------|----------------|----------------|
A|-3-3-3-0-3-3-3-0-|----------------|----------------|3-3-3-0-3-3-3-0-|
E|-----------------|1-1-1-0-1-1-1-0-|3-3-3-0-3-3-3-0-|----------------|

G|-----------------|----------------|----------------|----------------|
D|-----------------|----------------|----------------|----------------|
A|-----------------|----------------|----------------|----------------|
E|-0-0-0-0-0-0-0-0-|1-1-1-1-1-1-1-1-|3-3-3-3-3-3-3-3-|4-4-4-4-4-4-4-4-|

G|-----------------|----------------|----------------|----------------|
D|-----------------|0-0-0-0-0-0-0-0-|----------------|----------------|
A|-0-0-0-0-0-0-0-0-|----------------|3---3-----3---3-|3---------------|
E|-----------------|----------------|----------------|----------------|

G|-----------------|----------------|----------------|----------------|
D|-----------------|----------------|----------------|----------------|
A|-3-3-3-0-3-3-3-0-|----------------|----------------|3-3-3-0-3-3-3-0-|
E|-----------------|1-1-1-0-1-1-1-0-|3-3-3-0-3-3-3-0-|----------------|

G|-----------------|----------------|----------------|----------------|
D|-----------------|----------------|----------------|----------------|
A|-3-3-3-0-3-3-3-0-|----------------|----------------|3-3-3-0-3-3-3-0-|
E|-----------------|1-1-1-0-1-1-1-0-|3-3-3-0-3-3-3-0-|----------------|


G|-----------------||
D|-----------------||
A|-3---------------||
E|-----------------||

Smile

INTRO:
G:-----------------------------------------------------------|
D:-----------------------------------------------------------|
A:-----------------------------------------------------------|
E:-5555555-454-5555555-454-7777777-575-77777777\-------------|

VERSE:
G:---------------------------------------------------------|
D:---------------------------------------------------------|
A:-----------0000------2222-4444---------------------------|
E:-0000-4444------2222-----------4444----------------------|

CHORUS:
G:---------------------------------------------------------|
D:---------------------------------------------------------|
A:-0000-2222-----------00000000-22222222-------------------|
E:-----------0000-4444-------------------------------------|

VERSE
CHORUS

BRIDGE (a little unsure about this part):
G:---------------------------------------------------------|
D:---------------------------------------------------------|
A:-00000000-22222222---------------------------------------|
E:-------------------00000000-44444444---------------------|

INTRO (played as the 2nd half of Bridge)
VERSE (No Lyrics)
CHORUS
BRIDGE
INTRO (2nd Half Bridge)

OUTRO (it?s basically like the Verse, but it?s different at the end):
G:---------------------------------------------------------|
D:---------------------------------------------------------|
A:----------2222----2~-4~----------------------------------|
E:-0000-4444----2222-----4~--------------------------------|


Simple Pages

INTRO:
G:---------------------------------------------------------|
D:---------------------------------------------------------|
A:---------------------------------------------------------|
E:-2222222222222222-0000000000000000-----------------------|

VERSE/BRIDGE:
G:---------------------------------------------------------|
D:---------------------------00000000----------------------|
A:-00000000------------------------------------------------|
E:---------00000000-22222222-------------------------------|

CHORUS
G:---------------------------------------------------------|
D:---------------------------------------------------------|
A:-44444444-----------00000000--------00000000-------------|
E:----------22222-444---------00000000--------00000000-----|

CHORUS (cont.)
G:---------------------------------------------------------|
D:-00000000-000--------------------------------------------|
A:--------------444-222------------------------------------|
E:---------------------------------------------------------|

VERSE X2
CHORUS
INTRO
BRIDGE X2
CHORUS
VERSE X4


Glorious Day

intro
G|-----------------|-----------------|
D|-----------------|-----------------|
A|-0---------------|-5---------------|
E|-----------------|-----------------|
	repeat above 3 times, then play...
G|-----------------|-----------------|
D|-----------------|-----------------|
A|-2-2-2-2-2-2-2-2-|-5-5-5-5-5-5-5-5-|
E|-----------------|-----------------|


verse
G|-----------------|-----------------|-----------------|-----------------|
D|-----------------|-----------------|-----------------|-----------------|
A|-----------------|-0-0-0-0-0-0-0-0-|---------2-2-2-2-|-5-5-5-5-5-5-5-5-|
E|-2-2-2-2-2-2-2-2-|-----------------|-0-0-0-0---------|-----------------|

G|-----------------|-----------------|-----------------|-----------------|
D|-----------------|-----------------|-----------------|-----------------|
A|-4-4-4-4-4-4-4-4-|-2-2-2-2-2-2-2-2-|-2-2-2-2-2-2-2-2-|-0--2-4----------|
E|-----------------|-----------------|-----------------|-----------------|

G|-----------------|-----------------|-----------------|-----------------|
D|-----------------|-----------------|-----------------|-----------------|
A|-5-5-5-5-5-5-5-5-|-4-4-4-4-4-4-4-4-|-2-2-2-2-2-2-2-2-|-2-2-2-2-2-2-2-2-|
E|-----------------|-----------------|-----------------|-----------------|


chorus
G|-----------------|-----------------|-----------------|-----------------|
D|-----------------|-----------------|-----------------|-----------------|
A|-0-0-0-0-0-0-0-0-|-5-5-5-5-5-5-5-5-|-0-0-0-0-0-0-0-0-|-5-5-5-5-5-5-5-5-|
E|-----------------|-----------------|-----------------|-----------------|

G|-----------------|-----------------|-----------------|-----------------|
D|-----------------|-----------------|-----------------|-----------------|
A|-0-0-0-0-0-0-0-0-|-5-5-5-5-5-5-5-5-|-----------------|-4-4-4-4-4-4-4-4-|
E|-----------------|-----------------|-4-4-4-4-4-4-4-4-|-----------------|


outro (last verse)
G|-----------------|-----------------|-----------------|-----------------|
D|-----------------|-----------------|-----------------|-----------------|
A|-----------------|-0-0-0-0-0-0-0-0-|---------2-2-2-2-|-5-5-5-5-5-5-5-5-|
E|-2-2-2-2-2-2-2-2-|-----------------|-0-0-0-0---------|-----------------|

G|-----------------|-----------------|-----------------|-----------------|
D|-----------------|-----------------|-----------------|-----------------|
A|---------2-2-2-2-|-5-5-5-5-5-5-5-5-|---------2-2-2-2-|-5-5-5-5-5-5-5-5-|
E|-0-0-0-0---------|-----------------|-0-0-0-0---------|-----------------|

Oh Girlfriend

Intro
-----------------------------------------------------|
-----------------------------------------------------|
-----------------------------------------------------|
-5555555555555555-3333333333333333-------------------|

verse/solo
-----------------------------------------------------|
-----------------------------------------------------|
------5555-2222--------------------------------------|
-5555-----------0000---------------------------------|
Chorus
---------------------------------------------------------|
---------------------------------------------------------|
------2222-------2222-55555555-22222222------------------|
-2222-------2222------------------------3333333333333333-|

Order:
Intro
Verse(4x)
Chorus
Verse(4x)
Chorus
Intro
Solo (play verse 4x)
Comments