Weezer - Glorious Day Chords & Tabs

 

Glorious Day Chords & Tabs

Weezer Chords & Tabs

Version: 1 Type: Bass Tab 0 ratings
1 star 2 stars 3 stars 4 stars 5 stars
comments

Glorious Day Bass Tab

Weezer - Glorious Day
Submitted By: Jason Lee
EMail: loser_guitarist@hotmail.com
album: The Green Album (2000)

intro
G|-----------------|-----------------|
D|-----------------|-----------------|
A|-0---------------|-5---------------|
E|-----------------|-----------------|
	repeat above 3 times, then play...
G|-----------------|-----------------|
D|-----------------|-----------------|
A|-2-2-2-2-2-2-2-2-|-5-5-5-5-5-5-5-5-|
E|-----------------|-----------------|


verse
G|-----------------|-----------------|-----------------|-----------------|
D|-----------------|-----------------|-----------------|-----------------|
A|-----------------|-0-0-0-0-0-0-0-0-|---------2-2-2-2-|-5-5-5-5-5-5-5-5-|
E|-2-2-2-2-2-2-2-2-|-----------------|-0-0-0-0---------|-----------------|

G|-----------------|-----------------|-----------------|-----------------|
D|-----------------|-----------------|-----------------|-----------------|
A|-4-4-4-4-4-4-4-4-|-2-2-2-2-2-2-2-2-|-2-2-2-2-2-2-2-2-|-0--2-4----------|
E|-----------------|-----------------|-----------------|-----------------|
[ Tab from: http://www.guitartabs.cc/tabs/w/weezer/glorious_day_btab.html ]
G|-----------------|-----------------|-----------------|-----------------|
D|-----------------|-----------------|-----------------|-----------------|
A|-5-5-5-5-5-5-5-5-|-4-4-4-4-4-4-4-4-|-2-2-2-2-2-2-2-2-|-2-2-2-2-2-2-2-2-|
E|-----------------|-----------------|-----------------|-----------------|


chorus
G|-----------------|-----------------|-----------------|-----------------|
D|-----------------|-----------------|-----------------|-----------------|
A|-0-0-0-0-0-0-0-0-|-5-5-5-5-5-5-5-5-|-0-0-0-0-0-0-0-0-|-5-5-5-5-5-5-5-5-|
E|-----------------|-----------------|-----------------|-----------------|

G|-----------------|-----------------|-----------------|-----------------|
D|-----------------|-----------------|-----------------|-----------------|
A|-0-0-0-0-0-0-0-0-|-5-5-5-5-5-5-5-5-|-----------------|-4-4-4-4-4-4-4-4-|
E|-----------------|-----------------|-4-4-4-4-4-4-4-4-|-----------------|


outro (last verse)
G|-----------------|-----------------|-----------------|-----------------|
D|-----------------|-----------------|-----------------|-----------------|
A|-----------------|-0-0-0-0-0-0-0-0-|---------2-2-2-2-|-5-5-5-5-5-5-5-5-|
E|-2-2-2-2-2-2-2-2-|-----------------|-0-0-0-0---------|-----------------|

G|-----------------|-----------------|-----------------|-----------------|
D|-----------------|-----------------|-----------------|-----------------|
A|---------2-2-2-2-|-5-5-5-5-5-5-5-5-|---------2-2-2-2-|-5-5-5-5-5-5-5-5-|
E|-0-0-0-0---------|-----------------|-0-0-0-0---------|-----------------|

tabbed out 10/29/02 by =bert=
Comments