Weezer - Getchoo Chords & Tabs

 

Getchoo Chords & Tabs

Weezer Chords & Tabs

Version: 1 Type: Bass Tab 0 ratings
1 star 2 stars 3 stars 4 stars 5 stars
comments

Getchoo Bass Tab

   
Weezer
Getchoo

Intro
gb---------------------------------|
db---------------------------------|
ab---------------------------------|
eb-5-5-555-5-5-0-0-/1212-121212-12-|

Verse
gb---------------------------------------------------------------------|
db---------------------------------------------------------------------|
ab---------------------------------------------------------------------|
eb-5-5-555-5-5-12-12-121212-12-10-12-5-5-555-5-5-12-12-121212-12-10-12-|

gb--------------------------------------------------------------------------------|
db--------------------------------------------------------------------------------|
ab-------------------------------------------------------12-12-19191919-19-19-19\-|
eb-5-5-5555-5-5-10-10-10101010-10-10-12-12-1212-12-14-15--------------------------|
[ Tab from: http://www.guitartabs.cc/tabs/w/weezer/getchoo_btab.html ]
Pre Verse
gb--------------------------------------------------------|
db--------------------------------------------------------|
ab--------------------------------------------------------|
eb-5-5-555-5-5-0-0-/1212-121212-12-5-5-555-5-5-0-7--5--4--|

Chorus
gb-----------------------------------------------------------|
db-----------------------------------------------------------|
ab---------------------------------------------19-19---------|
eb-0-0-7-8-8-7-0-0-7-8-8-7-0-0-7-8-8-7-0-0-0-0---------------|

Bridge
gb-------------------------------------------------------|
db-------------------------------------------------------|
ab-5-5-5-5-5-5-5-5-5-5-5-5-------------------------------|
eb-------------------------5-5-5-5-5-5-17-17-17-17-17-17-|

gb-------------------------------------------------------------------------|
db-------------------------------------------------------------------------|
ab-17-17-17-17-17-17-17-17-17-17-17-17-------------------19-17-19-14-15-14-|
eb-------------------------------------12-12-12-12-12-12-------------------|
Comments