Weezer - Falling For You Chords & Tabs

 

Falling For You Chords & Tabs

Weezer Chords & Tabs

Version: 1 Type: Tab 0 ratings
1 star 2 stars 3 stars 4 stars 5 stars
comments

Falling For You Tab

   
Weezer - Falling For You
Submitted By: Jason Lee
EMail: loser_guitarist@hotmail.com
Album: Pinkerton (1996)

Tabbed by: Derek (ratbert99x@aol.com)

TUNE DOWN 1/2 STEP if playing along with the CD


[INTRO]


high E-----16----12-----16----12--  (other guitar plays C#m)
     B--12----12-----12----12-----[VERSE 1]


G#-G#-G#  C#m                    F#m                             
           holy cow i think i've got one here
B                               G#  E-E-E
 Now just what am i supposed to do
C#m                     A
i've got a number of irrational fears
B                           E       
that i'd like to share with you


C#m                           F#m
first there's rules about old goats like me
B                               G#   E-E-E
hanging around with chicks like you


C#m           F#                           
but i do like you and another one
G#
 You say like too much[CHORUS 1]
G#            A 
 I'm  shaking at your touch
B          E 
I like you way too much  
   B          D    G   C
My baby i'm afraid i'm falling for you
G#           A         B         E
I'd do about anything to get the hell out alive
   B                           E  D       
Or maybe i would rather settle down  
     G  A
With you  ohhh[SOLO CHORDS] - each chord played 4 beats
E---------------------------------------------------
B---------------------------------------------------
G---7----------4------------------------------------
D---7----7-----4-----4----------7----4-----6--6--6--
A---5----4-----2-----0----7-----7----4-----6--6--6--
E-------------------------4-----5----2-----4--4--4-- 
    D   D/C#   Bm   B/A  A/G#   A    F#    G#


[VERSE 2]
C#m             F#m
 Holy moly baby wouldn't you know it
B                      G#    E-E-E
 Just as i was bustin' loose
C#m                    A
 I gotta go turn in my rock star card
B                         E 
 and get fat and old with you
C#m                            F#m
 'cause i'm a burning a candle your a gentle moth
         B                       G#    E-E-E
Teaching me to lick a little bit kinder


C#m            F#
 And i do like you, you're the lucky one
G#
 No i'm the lucky one[CHORUS 1] - same chords[SOLO CHORDS] *held for 12 beats

[ Tab from: http://www.guitartabs.cc/tabs/w/weezer/falling_for_you_tab.html ]
E-------------------------------------------------------
B-------------------------------------------------------
G---7----------4---------------------------4---------5--
D---7----7-----4-----4----------7----4-----4----2----5--
A---5----4-----2-----0----7-----7----4-----2----2----3--
E-------------------------4-----5----2----------0-------
    D   D/C#   Bm   B/A  A/G#   A    F#    B    E    CE--------------------------------------------
B--------------------------------------------
G--------------5----7---------7----5----7----
D---5----------5----7----5----7----5----7----
A---5----5-----3----5----5----5----3----5----
E---3----2---------------3-------------------
    G   G/F#   C*   D    G*   D    C*   D[VERSE 3]
Em              Am7               
 Holy sweet god damn you left your 
D             Bm     G-G-G
cello in the basement
Em            Am7    
i admired the glowing stars
    D               Bm    G-G-G
and tried to play a tune
Em                        Am7 
I can't believe how bad I suck it's true
D                             Bm             G    
what could you possibly see in little ol' 3 chord me
Em            Am7              
but i do like you and you like me too
B
  I'm ready let's do it baby[CHORUS 2]
B            C
 I'm shaking at your touch
D           G
 I like you way too much
   D         F     Bb  Eb
my baby i'm afraid i'm falling for you
B             C       D           G 
 I'd do about anything to get the hell out alive
   D                           G    F            Bb  Eb
or maybe i would rather settle down (down), with you (you)
G     F          Bb   Eb
Down (down) with you (you)


end on: Gthis tab doesn't have lead parts. But I 
can assure you, it's 95% correct. Slighty unsure of 
some of the minor/major stuff (just F#m).
Also, listen for the chord changes in the solo,
I'm pretty sure it's right.   this is the fill right before the chorus
E--16------14---16------14---16-------
B-------------------------------------
G------17-----------17-----------17---
D-------------------------------------
A-------------------------------------
E-------------------------------------
  "..you say like to much"


     EADGBE
Am7: x02010
Em:  022000


use barre chords for everything else. if you don't know
the formations, look them up in a guitar book or on the 
internet.


note:
kinda ironic that River's uses the lyric "little ol' 3 chord me" 
in this song. Cuz every root note on the fret board (from A to G#) 
is used in it. 


submitted 10/29/02 by =bert
actually tabbed by Derek (ratbert99x@aol.com)
Comments