Weezer - El Scorcho Chords & Tabs

 

El Scorcho Chords & Tabs

Weezer Chords & Tabs

Version: 6 Type: Tab 0 ratings
1 star 2 stars 3 stars 4 stars 5 stars
comments

El Scorcho Tab

   
Weezer- El Scorcho

By Andrew Mirzayi (email amirzayi@hotmail.com w/ questions)
This is a lot easier version compared to the other El Scorcho tabs on this 
site which are just unwieldly and hard.
Tuning: 1/2 step down

Intro/Verse (b= bend, the bend is not necessary on this note it just sounds
better that way) Repeats

------------------------------------------------------------
----2------------7b-----------------------------------------
------------------------------------------------------------
--2---2--------7---7----------------------------------------
0-----------5-----------------------------------------------
------------------------------------------------------------
[ Tab from: http://www.guitartabs.cc/tabs/w/weezer/el_scorcho_tab_ver_6.html ]
Chorus, Play intro/verse twice then play
------------------------------------------
------------------9--------2--------9----7
------------------------------------9----7
2-0-------------9--------2---2------------
----4-2------7---------0---------7----5---
------------------------------------------

Bridge Rhythm-change thing ("i cant talk about it")Repeats several times

A   D   B   E
-------------
2---7---4---9
2---7---4---9
2---7---4---9
0---5---2---7
-------------

Solo (listen to song for exact rhythm)

7-7-9---------13-12--19--17--16-17----22----19-21-----------
------6--10-11--------------------17------------------------
-----------------------------------------19--------6--------
------------------------------------------------------------
------------------------------------------------------------
------------------------------------------------------------
Comments