Weezer - El Scorcho Chords & Tabs

 

El Scorcho Chords & Tabs

Weezer Chords & Tabs

Version: 1 Type: Bass Tab 1 rating
1 star 2 stars 3 stars 4 stars 5 stars
comments

El Scorcho Bass Tab

Weezer-El Scorcho 

(Intro)
------5----------11---------5----------11---------------------------------
--------6-----------12--------6-------------------------------------------
----6---------12----------6---------12------------------------------------
--4--------10-----------4--------10---------------------------------------
                              El Scorcho!               A-Cari!

(Main riff)
------5----------11---------5----------11---------------------------------
--------6-----------12--------6-----------12------------------------------
----6---------12----------6---------12------------------------------------
--4--------10-----------4--------10---------------------------------------
                                                                         God 
Damn you....
(Repeat main Riff till this)(then back to main riff after)
------5----------11---------5-------------------------------------------
--------6-----------12--------6-----------------------------------------
----6---------12----------6---------------------------------------------
--4--------10-----------4--------10-10-10-10-10------------------------
                        And im jello.....BAAAAAAABY!

Note: The Part that goes "why you wanna go and do me like that" has no bass 
or guitar.
[ Tab from: http://www.guitartabs.cc/tabs/w/weezer/el_scorcho_btab.html ]
Chorus
(Main riff Distorted)
------5----------11---------5----------11---------------------------------
--------6-----------12--------6-----------12------------------------------
----6---------12----------6---------12------------------------------------
--4--------10-----------4--------10---------------------------------------

(Heavy Part)
--------------------------------------------------------------------
--------------------------------------------------------------------
------------44444444-----------66666666--------------------------
--44444444-----------66666666------------------------------------
Stupid is it.....                       

(Low Part of the Heavy Part)
--------------------------------------------------------------------
--------------------------------------------------------------------
------------4-4-4-4----------------6-6-6-6------------------------
--4-4-------------------------6-6----------------------------------
Stupid is it for all i know you want me to...

Guitar Solo (formatted for bass)
-------------------------------------------------------------------
--------------------9-7-6-7-----11-----9>11-----------------------
--------------7-6-----------6--------------------------------------
--6-8-0--4-6-----------------------11-----------------------------

Order:

Intro
Main Riff (Played Numerous Times)
Chorus
Main Riff (Numerous Times
Chorus
Heavy Part(2x)
Low/Heavy Part(2x)
Solo
Main Riff (Numerous Times)
Chorus
Chorus

Its easy if you know the song well
Petee

Comments