Weezer - El Scorcho Acoustic Chords & Tabs

 

El Scorcho Acoustic Chords & Tabs

Weezer Chords & Tabs

Version: 1 Type: Tab 1 rating
1 star 2 stars 3 stars 4 stars 5 stars
comments

El Scorcho Acoustic Tab

Ok Heres What i got..

Verse
e----------------------------------------------------
b----------------------------------------------------
g---------6v----------------------10v----------------
d-------------7------------------------11------------
a------7---------------------11----------------------
e---5---------------------9--------------------------

God Damn You....

e---------------------------------
b---------------------------------
g---------------------------------
d-10--10--10--10-----9-9-9-9------>>>>>back to verse
a-10--10--10--10-----9-9-9-9------
e-8---8---8---8------7-7-7-7------

Chorus
--there are two guitars here, one plays the verse while the
other guitar plays this
[ Tab from: http://www.guitartabs.cc/tabs/w/weezer/el_scorcho_acoustic_tab.html ]
--------------------
--STRUM---STRUM-----
-----------6-------->>>>repeat throughout chorus
--6--------6--------
--6--------4--------
--4-----------------


How stupid is it...

-----------------------------------
-STRUM--STRUM---STRUM----STRUM-----
--------6--------------------------
--6-----6--------8--------8--------
--6-----4--------8--------8--------
--4--------------6--------6--------


Solo: Now the original solo is played much higher, but since my
acoustic is not cutaway i play it like this, its a lower tone, but
still in key

e--------------------------------------------------------
b--------------------------11--9--8h9-----13------11h13--
g--------------------9--8--------------9-----------------
d----8--10-----6--8----------------------------13--------
a-----------7--------------------------------------------
e--------------------------------------------------------

have fun..good luck, any questions email me at Vsstevens@aol.com
Comments