Weezer - Dope Nose Chords & Tabs

 

Dope Nose Chords & Tabs

Weezer Chords & Tabs

Version: 6 Type: Tab 0 ratings
1 star 2 stars 3 stars 4 stars 5 stars
comments

Dope Nose Tab

   
Dope Nose
as performed by Weezer
Words and Music by Rivers Cuomo

4/4 Time
Guitar is in Standard Tuning (EADGBe)
Bass is in Standard Tuning (EADG)


Intro

    Bb5                       Eb5     Bb5
e||---------------------------------|---------------------------------|
B||---------------------------------|---------------------------------|
G||---------------------------8-----|---------------------------------|
D||-8-----------8-------8-----8-----|-8-----------8-------8-----------|
A||-8-----------8-------8-----6-----|-8-----------8-------8-----------|
E||-6-----------6-------6-----6-----|-6-----------6-------6-----------|(Guitar)
/////////////////////////////////////////////////////////////////////\
G||---------------------------------|---------------------------------|
D||---------------------------------|---------------------------------|
A||---------------------------------|---------------------------------|
E||---------------------------------|-------------------------11\-----|(Bass)


Verse

   Bb5                       Eb5     Bb5                       Eb5
e|---------------------------------|---------------------------------|
B|---------------------------------|---------------------------------|
G|---------------------------8-----|---------------------------8-----|
D|-8-----------8-------8-----8-----|-8-----------8-------8-----8-----|
A|-8-----------8-------8-----6-----|-8-----------8-------8-----6-----|
E|-6-----------6-------6-----6-----|-6-----------6-------6-----6-----|(G1)
/////////////////////////////////////////////////////////////////////\
G|---------------------------------|---------------------------------|
D|---------------------------------|---------------------------------|
A|---------------------------6-----|---------------------------6-----|
E|-6-----------6-------6-----------|-6-----------6-------6-----------|(B)
   Oh                  Oh            oh          Oh

Bb5                     Eb5 Bb5                   Eb5
oh		Oh	oh		oh

   Bb5                       Eb5     Bb5                       Eb5
e|---------------------------------|---------------------------------|
B|---------------------------------|---------------------------------|
G|-*********PM**********-----8-----|-*********PM**********-----8-----|
D|-8-----------8-------8-----8-----|-8-----------8-------8-----8-----|
A|-8-----------8-------8-----6-----|-8-----------8-------8-----6-----|
E|-6-----------6-------6-----6-----|-6-----------6-------6-----6-----|(G1)
/////////////////////////////////////////////////////////////////////\
G|---------------------------------|---------------------------------|
D|---------------------------------|---------------------------------|
A|---------------------------6-----|---------------------------6-----|
E|-6-----------6-------6-----------|-6-----------6-------6-----------|(B)
   Dead                on    my      head                Wasting

   F5                        Eb5     Bb5         Eb5     Bb5   Eb5
e|---------------------------------|---------------------------------|
B|---------------------------------|---------------------------------|
G|-*********PM**********-----8-----|-*PM*--------8-------------8-----|
D|-3-----------3-------3-----8-----|-8-----------8-------8-----8-----|
A|-3-----------3-------3-----6-----|-8-----------6-------8-----6-----|
E|-1-----------1-------1-----6-----|-6-----------6-------6-----6-----|(G1)
/////////////////////////////////////////////////////////////////////\
G|---------------------------------|---------------------------------|
D|---------------------------------|---------------------------------|
A|---------------------------------|---------------------------6-----|
E|-1-----------1-------1-----1-----|-6-----------6-------6-----------|(B)
   time                on    my      own

Bb5		Eb5	Bb5		Eb5	F5		Eb5
Sleep      rescue       me         Take me      back         to my

   Bb5         Eb5     Bb5
e|---------------------------------|
B|---------------------------------|
G|-------------8-------------------|
D|-8-----------8-------8-----8---0-|
A|-8-----------6-------8-----8---0-|
E|-6-----------6-------6-----6-----|(G1)
///////////////////////////////////\
G|---------------------------------|
D|---------------------------------|
A|---------------------------------|
E|-6-----------6-------6-----------|(B)
   home


Chorus

   Eb5         Bb5             F5
e|---------------------------------|---------------------------------|
B|---------------------------------|-----11p10p8---------------------|
G|---------------------------------|-------------10--7---------------|
D|---------------------------------|---------------------10--8---10--|
A|---------------------------------|---------------------------------|
E|---------------------------------|---------------------------------|(G2)
/////////////////////////////////////////////////////////////////////\
e|---------------------------------|---------------------------------|
B|---------------------------------|---------------------------------|
G|-8---------------------------10--|-----10--10--10--10--10--10--10--|
D|-8-----------8---8-----------10--|-----10--10--10--10--10--10--10--|
A|-6-----------8---8-----------8---|-----8---8---8---8---8---8---8---|
E|-6-----------6---6-----------8---|-----8---8---8---8---8---8---8---|(G1)
/////////////////////////////////////////////////////////////////////\
G|---------------------------------|---------------------------------|
D|---------------------------------|-----3---3---3---3---3---3---3---|
A|-6-------------------------------|---------------------------------|
E|-------------6---6-----------1---|---------------------------------|(B)
   For         the times                 that    you wanna   go  and

   Eb5         Bb5             F5
e|---------------------------------|---------------------------------|
B|---------------------------------|---------------------------------|
G|---------------------------------|-----5h7-5h7-----5h7-5-----------|
D|---------------------------------|-------------------------8-------|
A|---------------------------------|---------------------------------|
E|---------------------------------|---------------------------------|(G2)
/////////////////////////////////////////////////////////////////////\
e|---------------------------------|---------------------------------|
B|---------------------------------|---------------------------------|
G|-8---8---8-------------------10--|-----10--10--10--10--10--10--10--|
D|-8---8---8---8---8---8---8---10--|-----10--10--10--10--10--10--10--|
A|-6---6---6---8---8---8---8---8---|-----8---8---8---8---8---8---8---|
E|-6---6---6---6---6---6---6---8---|-----8---8---8---8---8---8---8---|(G1)
/////////////////////////////////////////////////////////////////////\
G|---------------------------------|---------------------------------|
D|---------------------------------|---------3-------3---3---3---2---|
A|-6---6---6-----------------------|-----3---------------------------|
E|-------------6---6---6---6---1---|---------------------------------|(B)
       bust    rhymes  real    slow

   Eb5         Bb5             F5
e|---------------------------------|---------------------------------|
B|---------------------------------|-----11p10p8---------------------|
G|---------------------------------|-------------10--7---------------|
D|---------------------------------|---------------------10--8---10--|
A|---------------------------------|---------------------------------|
E|---------------------------------|---------------------------------|(G2)
/////////////////////////////////////////////////////////////////////\
e|---------------------------------|---------------------------------|
B|---------------------------------|---------------------------------|
G|-8---------------------------10--|-----10--10--10--10--10--10--10--|
D|-8-----------8---8-----------10--|-----10--10--10--10--10--10--10--|
A|-6-----------8---8-----------8---|-----8---8---8---8---8---8---8---|
E|-6-----------6---6-----------8---|-----8---8---8---8---8---8---8---|(G1)
/////////////////////////////////////////////////////////////////////\
G|---------------------------------|---------------------------------|
D|---------------------------------|---------------------------------|
A|-6-------------------------------|-------------------------0---1---|
E|-------------6---6-----------1---|-----1---1---2---3---4-----------|(B)
   I'll        appear                    Slap    you on  the face and
[ Tab from: http://www.guitartabs.cc/tabs/w/weezer/dope_nose_tab_ver_6.html ]
   Eb5         Bb5             F5
e|---------------------------------|---------------------------------|
B|---------------------------------|---------------------------------|
G|-8---8---8-------------------10--|-----10--10--10--10--10--10--10--|
D|-8---8---8---8---8---8---8---10--|-----10--10--10--10--10--10--10--|
A|-6---6---6---8---8---8---8---8---|-----8---8---8---8---8---8---8---|
E|-6---6---6---6---6---6---6---8---|-----8---8---8---8---8---8---8---|(G1)
/////////////////////////////////////////////////////////////////////\
G|---------------------------------|---------------------------------|
D|---------------------------------|---------------------------------|
A|-6---6---6-----------------------|---------------------------------|
E|-------------6---6---6---6---1---|-1---1---1---1---1---1---1---1---|(B)
       enjoy           the     show


Verse
(Played as previous verse)

Bb5		Eb5	Bb5		Eb5
Oh	     Oh		oh	    Oh
Bb5		Eb5	Bb5		Eb5
   oh        Oh oh         oh

Bb5           Eb5 
Cheese smells so 
Bb5     Eb5
good on a 
F5          Eb5
burnt piece of 
Bb5  Eb5  Bb5  Eb5
lamb

   Bb5                       Eb5     Bb5                       Eb5
e|---------------------------------|---------------------------------|
B|---------------------------------|---------------------------------|
G|-************PM***********-8-----|-************PM***********-8-----|
D|-8---8---8---8---8---8---8-8-----|-8---8---8---8---8---8---8-8-----|
A|-8---8---8---8---8---8---8-6-----|-8---8---8---8---8---8---8-6-----|
E|-6---6---6---6---6---6---6-6-----|-6---6---6---6---6---6---6-6-----|(G1)
/////////////////////////////////////////////////////////////////////\
G|---------------------------------|---------------------------------|
D|---------------------------------|---------------------------------|
A|---------------------------6-----|---------------------------6-----|
E|-6-----------6-------6-----------|-6-----------6-------6-----------|(B)
   Fag                 of  the       year                who could

   F5                        Eb5     Bb5         Eb5     Bb5   Eb5
e|---------------------------------|---------------------------------|
B|---------------------------------|---------------------------------|
G|-************PM***********-8-----|-------------8-------------8-----|
D|-3---3---3---3---3---3---3-8-----|-8-----------8-------8-----8-----|
A|-3---3---3---3---3---3---3-6-----|-8-----------6-------8-----6-----|
E|-1---1---1---1---1---1---1-6-----|-6-----------6-------6-----6-----|
/////////////////////////////////////////////////////////////////////\
G|---------------------------------|---------------------------------|
D|---------------------------------|---------------------------------|
A|---------------------------------|---------------------------------|
E|-1-----------1-------1-----1-----|-6-----------6-------6-----------|(B)
   beat                up    your    man


Chorus
(Played as previous chorus)

Eb5 Bb5
For the times
F5
that you wanna go and
Eb5  Bb5
Bust rhymes real
F5
slow
Eb5  Bb5
I'll appear
F5
Slap you on the face and
Eb5   Bb5
enjoy the
F5
show


Interlude

   Gb5
e|---------------------------------|---------------------------------|
B|---------------------------------|-21p18---21p18---21p1818-18------|
G|---------------------------------|------20------20-----------20p18-|
D|---------------------------------|---------------------------------|
A|---------------------------------|---------------------------------|
E|---------------------------------|---------------------------------|(G2)
/////////////////////////////////////////////////////////////////////\
e|---------------------------------|---------------------------------|
B|---------------------------------|---------------------------------|
G|-11--11--11--11--11--11--11--11--|-11--11--11--11--11--11--11--11--|
D|-11--11--11--11--11--11--11--11--|-11--11--11--11--11--11--11--11--|
A|-9---9---9---9---9---9---9---9---|-9---9---9---9---9---9---9---9---|
E|-9---9---9---9---9---9---9---9---|-9---9---9---9---9---9---9---9---|(G1)
/////////////////////////////////////////////////////////////////////\
G|---------------------------------|---------------------------------|
D|---------------------------------|---------------------------------|
A|---------------------------------|---------------------------------|
E|-2---2---2---2---2---2---2---2---|-2---2---2---2---2---2---2---2---|(B)
   Oh                                    this dope nose

Bb5		Eb5	Bb5		Eb5
Oh	     Oh		oh	    Oh
Bb5		Eb5	Bb5		Eb5
   oh        Oh oh         oh


Guitar Solo

(Guitar 1 and Bass play 1st verse)

   Bb5                                       Eb5
e|-------------------------------------------------|
B|-------------------------------------------------|
G|-15-13----13----13-------------------------------|
D|-------15----15----15----------13-11-13-11-------|
A|-------------------------------------------13-11-|
E|-------------------------------------------------|(G2)

   Bb5                                    Eb5
e|-------------------------------------------------|
B|-------------------------------------------------|
G|-------------------------------------------------|
D|-13-11----11-------------------------------11-13-|
A|-------13----13-11-13----------------11-13-------|
E|-------------------------------11-13-------------|(G2)

   F5                                     Eb5
e|-------------------------------------------------|
B|-------------------13----------------------------|
G|-------------------13b---------------------------|
D|-15----------15----------------15-------13----13-|
A|-------------------------------------------------|
E|-------------------------------------------------|(G2)

   Bb5                                    Eb5
e|-------------------------------------------------|
B|----------------------------------------13-------|
G|-------------------------------15-------13-------|
D|----------12-------12----------15----------------|
A|-------------------------------------------------|
E|-------------------------------------------------|(G2)

   Bb5                                    Eb5
e|-------------------------------------------------|
B|-13-------12-------12~~~~~~~~~-16-------15-------|
G|-13-------12-------12~~~~~~~~~-16-------15-------|
D|-------------------------------------------------|
A|-------------------------------------------------|
E|-------------------------------------------------|(G2)

   Bb5                                    Eb5
e|-------------------------------16-------15-------|
B|-15~~~~~~-13-------13----------16-------15-------|
G|-15~~~~~~-13-------13----------------------------|
D|-------------------------------------------------|
A|-------------------------------------------------|
E|-------------------------------------------------|(G2)

   F5                                     Eb5
e|-15-15-15-16-15-13-15-16-15-13----13-15-16-15-13-|
B|-------------------------------16----------------|
G|-------------------------------------------------|
D|-------------------------------------------------|
A|-------------------------------------------------|
E|-------------------------------------------------|(G2)

   Bb5                                    Eb5
e|-18--------18------------------------------------|
B|------------15-----15----------15----15\\\\------|
G|-------------15----15----------15----15\\\\------|
D|-------------------------------------------------|
A|-------------------------------------------------|
E|-------------------------------------------------|(G2)


Chorus
(Played as previous chorus)

Eb5 Bb5
For the times
F5
that you wanna go and
Eb5  Bb5
Bust rhymes real
F5
slow
Eb5  Bb5
I'll appear
F5
Slap you on the face and
Eb5   Bb5
enjoy the
F5
show


Interlude
(Played as previous interlude)

Gb5
Oh	this dope nose
Bb5		Eb5	Bb5		Eb5
Oh	     Oh		oh	    Oh
Bb5		Eb5	Bb5		Eb5
   oh        Oh oh         oh


Outro

   Eb5  Bb5  Eb5    Bb5  Eb5         Bb5
e|---------------------------------|---------------------------------||
B|---------------------------------|---------------------------------||
G|-8---------8-----------8----8----|---------------------------------||
D|-8----8----8------8----8----8----|-8\\\\\\\------------------------||
A|-6----8----6------8----6----6----|-8\\\\\\\------------------------||
E|-6----6----6------6----6----6----|-6\\\\\\\------------------------||
//////////////////////////////////////////////////////////////////////\
G|---------------------------------|---------------------------------||
D|---------------------------------|---------------------------------||
A|-6---------6-----------6----6----|---------------------------------||
E|------6-----------6--------------|-6\\\\\\\------------------------||
Comments