Weezer - Dope Nose Chords & Tabs

 

Dope Nose Chords & Tabs

Weezer Chords & Tabs

Version: 4 Type: Tab 0 ratings
1 star 2 stars 3 stars 4 stars 5 stars
comments

Dope Nose Tab

   
Okay guys, this took me some time to get everything correct but
I'm sure it's 100% correct solo and all

Artist - Weezer
Song - Dope Nose
Tabbed By - Patrick Koch

Intro
|-----------------|
|--------4--------|
|-3--3-3-3-3--3-3-|
|-3--3-3-1-3--3-3-|
|-1--1-1---1--1-1-|
|-----------------|

[Bass slide]

|-------------------------------------|
|--------4--------4--------4--------4-|
|-3--3-3-3-3--3-3-3-3--3-3-3-3--3-3-3-|
|-3--3-3-1-3--3-3-1-3--3-3-1-3--3-3-1-|
|-1--1-1---1--1-1---1--1-1---1--1-1---|
|-------------------------------------|

Verse (palm muted )
|------------------------------------|
|--------4--------4--------4---4---4-|
|-3--3-3-3-3--3-3-3--------3-3-3-3-3-|
|-3--3-3-1-3--3-3-1-3--3-3-1-3-1-3-1-|
|-1--1-1---1--1-1---3--3-3---1---1---|
|-------------------1--1-1-----------|

Chorus

'For The Times'
|---------|
|--4------|
|--3--3-3-|
|--1--3-3-|
|-----1-1-|
|---------|

'That you wanna go and'
|-----------------|
|-----------------|
|-----------------|
|-3-3-3-3-3-3-3-3-|
|-3-3-3-3-3-3-3-3-|
|-1-1-1-1-1-1-1-1-|

[Lead guitar part:]

e|-6-5-4---------------|
b|-------4--3----------|
g|-------------5--3--5-|


'Bust rhymes real slow'
|------------------------|
|-4----------------------|
|-3--3-3-----------------|
|-1--3-3-3-3-3-3-3-3-3-3-|
|----1-1-3-3-3-3-3-3-3-3-|
|--------1-1-1-1-1-1-1-1-|

[Lead guitar part:]

e|---------------|
b|-1/3-3-3-3-1---|
g|-------------3-|


'I'll appear'
|---------|
|--4------|
|--3--3-3-|
|--1--3-3-|
|-----1-1-|
|---------|

'Slap you on the face and'
|-----------------|
|-----------------|
|-----------------|
|-3-3-3-3-3-3-3-3-|
|-3-3-3-3-3-3-3-3-|
|-1-1-1-1-1-1-1-1-|

[Lead guitar part:]

e|-6-5-4---------------|
b|-------4--3----------|
g|-------------5--3--5-|

[ Tab from: http://www.guitartabs.cc/tabs/w/weezer/dope_nose_tab_ver_4.html ]
'Enjoy the show'
|------------------------|
|-4----------------------|
|-3--3-3-----------------|
|-1--3-3-3-3-3-3-3-3-3-3-|
|----1-1-3-3-3-3-3-3-3-3-|
|--------1-1-1-1-1-1-1-1-|

Bridge
'Ohhhhhhhhhh This dope nose'
|---------------------------------|
|---------------------------------|
|---------------------------------|
|-4-4-4-4-4-4-4-4-4-4-4-4-4-4-4-4-|
|-4-4-4-4-4-4-4-4-4-4-4-4-4-4-4-4-|
|-2-2-2-2-2-2-2-2-2-2-2-2-2-2-2-2-|

[Lead guitar part:]

e|-16-13-11-16-13-11-16-13-11-16-13-11-16-13-11-16-13-11-|
b|-------------------------------------------------------|
g|-------------------------------------------------------|


AND NOW........ THE SOLO!!!

e|--------------------------------------------------------------|
b|--------------------------------------------------------------|
g|-15-13----13--------------------------------------------------|
d|-------15----15-13-15--13-11-13-11-------13-11----11----------|
a|-----------------------------------13-11-------13----13-11-13-|
e|--------------------------------------------------------------|

e|--------------------------------------------------------------|
b|--------------------------13------------------15--13-13-12-12-|
g|--------------------------13-----13-13-12-12--15--13-13-12-12-|
d|-------------11-13-15--15----15--13-13-12-12------------------|
a|-------11-13--------------------------------------------------|
e|-11-13--------------------------------------------------------|

e|-----------------16-15-15-15-15-16-15-13-15-16-15-13----13-15-16-15-13-18-|
b|-16--15-15-13-13-16-15-------------------------------16-------------------|
g|-16--15-15-13-13----------------------------------------------------------|
d|--------------------------------------------------------------------------|
a|--------------------------------------------------------------------------|
e|--------------------------------------------------------------------------|

|-------|
|-15-15-|
|-15-15-|
|-------|
|-------|
|-------|

That's it, enjoy
-Patrick Koch
Comments