Weezer - Damage In Your Heart Chords & Tabs

 

Damage In Your Heart Chords & Tabs

Weezer Chords & Tabs

Version: 1 Type: Tab 0 ratings
1 star 2 stars 3 stars 4 stars 5 stars
comments

Damage In Your Heart Tab

make believe
weezer - the damage in your heart (tab by max s)
just worked out the song is actually tuned half a step down, but don't panic, you can
still play it in standard tuning, its just the cool harmonic bit you won't be able to
do properly.

if you do decide to tune your guitar a half step down, you can still use this tab, but
remember that every single note goes up one, so for example instead of a 2 it would actually be a 3.

and i've also added the proper harmonic part at the bottom of this tab, though i've
left in the alternative method for standard tuned guitars as well

e--------------------------------------------------|
b--11-11-12-11-9-11-9-7-11-12-11-9-----------------|
g--------------------------------------------------|
d--------------------------------------------------|
a--------------------------------------------------|
e--------------------------------------------------|

verse

e-----------------------------------------------------------|
b-----------------------------------------------------------|
g--8--4--6---------8--4--6--6-------------------------------|
d--8--4--6--8------8--4--6--6-------------------------------|
a--6--2--4--8------6--2--4--4-------------------------------|
e-----------6-----------------------------------------------|

chorus 'let it go'

e-------------------------------------------------------|
b-------------------------------------------------------|
g-----4--6----------------------------------------------|
d--4--4--6--4-------------------------------------------|
a--4--2--4--4-------------------------------------------|
e--2--------2-------------------------------------------|

'i can't tell you how the words they make me feel'
[ Tab from: http://www.guitartabs.cc/tabs/w/weezer/damage_in_your_heart_tab.html ]
e-------------------------------------------------------|
b-------------------------------------------------------|
g--8-----6----------------------------------------------|
d--8--6--6--4-------------------------------------------|
a--6--6--4--4-------------------------------------------|
e-----4-----2-------------------------------------------|

solo

e-------------------------------------------9--9-7-6-7-18-19/18-16h18-14-16--|
b--------------------11---9-11/12-11-9-7--7---7------------------------------|
g----8---8-----8-8-9----6----------------------------------------------------|
d--8---8---9-8---------------------------------------------------------------|
a----------------------------------------------------------------------------|
e----------------------------------------------------------------------------|

little guitar riff during song (touch 19th fret to get the harmonic, and use index finger
to play to give it a softer sound)

e----------------13--18-----------------------------------------|
b--19(harmonic)-------------------------------------------------|
g---------------------------------------------------------------|
d---------------------------------------------------------------|
a---------------------------------------------------------------|
e---------------------------------------------------------------|

*proper way to play the above riff with guitar tuned down half a step
(lightly touch the following frets to get a harmonic. place the pickup on the highest one)


e------------------------------------------------------------------|
b------7--5--------------------------------------------------------|
g---5--------------------------------------------------------------|
d------------------------------------------------------------------|
a------------------------------------------------------------------|
e------------------------------------------------------------------|
Comments