Weezer - Burndt Jamb Chords & Tabs

 

Burndt Jamb Chords & Tabs

Weezer Chords & Tabs

Version: 5 Type: Tab 0 ratings
1 star 2 stars 3 stars 4 stars 5 stars
comments

Burndt Jamb Tab

   
Transcribed by:Brad Chamberlain
                         

                          BURNDT JAMB-WEEZER

Tuning:Standard(eBGDAE)
Intro:(Pick up and down)

e|-4-4-4-4-4--4-2-2-2-2-/6-6-6-6-6--6-4-4-4-4-|
B|-2-2-2-2-2--2-2-2-2-2-/4-4-4-4-4--4-3-3-3-3-|
G|--------------------------------------------|
D|--------------------------------------------|
A|--------------------------------------------|
E|--------------------------------------------|

Verse:(Palm-muted) Strum on the end of the verse
[ Tab from: http://www.guitartabs.cc/tabs/w/weezer/burndt_jamb_tab_ver_5.html ]
e|--------------------------------------------------------|
B|-2-2-2-2-2-2-2-2-2-/6-6-6-6-6-4-4-4-4-7-7-7-7-8-8-8-8-6-|
G|-2-2-2-2-2-2-2-2-2-/6-6-6-6-6-4-4-4-4-7-7-7-7-8-8-8-8-6-|
D|-4-4-4-4-4-0-0-0-0-/4-4-4-4-4-3-3-3-3-5-5-5-5-6-6-6-6-4-|
A|--------------------------------------------------------|
E|--------------------------------------------------------|

Chorus:

e|-------------------------------------------------------------|
B|-----------------5(Bend)----------5(Bend)------------5(Bend)-|
G|---------------7----------------7------------------7---------|
D|---7-5-7-5-7-7------7-5-7-5-7-7--------7-5-7-5-7-7-----------|
A|-0-----------------------------------------------------------|
E|------------------1------------------3-----------------------|

e|----------------------------|
B|-----------------5(Bend)----|
G|---------------7------------|
D|---7-5-7-5-7-7--------------|
A|--------------------------0-|
E|-4--------------------------|

Don't have the solo. I wasn't sure on it. Sorry.
This is mainly it. After chorus, then to the intro
again, then so on...
Comments