Weezer - Burndt Jamb Chords & Tabs

 

Burndt Jamb Chords & Tabs

Weezer Chords & Tabs

Version: 2 Type: Bass Tab 0 ratings
1 star 2 stars 3 stars 4 stars 5 stars
comments

Burndt Jamb Bass Tab

Song: BURNDT JAMB
Band: WEEZER
Standard Tuning
Tabbed by: Jesse Williams (FFooccuuss@gmail.com)

I was pretty dissatisfied with everything else I found on the internet so hopefully this 
a little more accurate... Thanks anyway to those who took the time to tab *something* out.

INTRO/CHILL:
G|----------------------------------------------------|
D|----------------------------------------------------|
A|-------------0-4-5-6-7---7--7-7-7\------7---7-7-----|
E|5-5-5-5-5\-------------7--------------7---7-----7-6-|


VERSE (and SOLO):
G|---------------------------------------------------|
D|---------------------------------------------------|x2
A|---------------------------------------------------|
E|-5--5-5--0-5--5-5--5--5-0-7--7-7--0-7--7-7--7--7-0-|

[ Tab from: http://www.guitartabs.cc/tabs/w/weezer/burndt_jamb_btab_ver_2.html ]
PRE-CHORUS:
G|-------------------------------------------------------------------|
D|-------------------------------------------------------------------|
A|-4-444-44-44-4-44--5-555-55-55-5-55--2-222-22-22-2-22--------------|
E|-------------------------------------------------------0-00-0000---|


CHORUS:
G|-------------------|   |----------------------------------------|
D|-------------------|x2 |----------------------------------------|
A|-------------------|   |----------------------------------------|
E|-5-555p3-5-3535-55-|   |--1-111p0-1-0101-11---3-333p0-3-0303-33-|


OUTRO:
G|------------------------------------------------------------|
D|--------------4--------6--------7---------------------------|
A|---0-7-0----2---2----4---4----5---5----7------7------0------|
E|------------------------------------------------------------|

STRUCTURE:
  INTRO x2
  VERSE x1
  PRE-CHORUS x1
  CHILL x1
  VERSE x1
  PRE-CHORUS x1
  CHORUS x1
  CHILL x1
  SOLO x1
  PRE-CHORUS x1
  CHORUS x1
  CHILL x4
  OUTRO x1
Comments