Weezer - Blue Chords & Tabs

 

Blue Chords & Tabs

Weezer Chords & Tabs

Version: 1 Type: Tab 0 ratings
1 star 2 stars 3 stars 4 stars 5 stars
comments

Blue Tab

   
Transcription by Rahul Kamath
Email: RKAMATH@DELPHI.COM
Please mail errors to above address
                                                    TUNING

My Name is Jonas                                    1/2 Step Down
No One Else                                         Normal
The World Has Turned and Left Me Here               1/2 Step Down
Buddy Holly                                         1/2 Step Down
Undone- the Sweater Song                            1/2 Step Down
Surf Wax America                                    1/2 Step Down
Say It Ain't So                                     1/2 Step Down
In The Garage                                       1/2 Step Down
Holiday                                             1/2 Step Down
Only in Dreams                                      1/2 Step Down




@My Name is Jonas

INTRO
 C             Em7
------------------------0------
---1------1-------0-------0----
-----0------0-------0-------0--
-------2--------------0--------
-3-------------2---------------
-------------------------------

                 C G A
My name ...
F                C
I'm carrying ...
                               C G A
Thanks for all ...
    F                   C G A F
But this is ...
C        G
Come sit ...
A        F
Pour ...

Just like grandma ...


    C               A             G
The choo-choo train ...
    C         A         G
A ticket cost ...
    C            A             G
The driver said "hey man ...
   C              A          G
Of course we were ...


The worker's are ...
C

Solo:  (Note: I don't think is near being right)
  C                A             G
-----------------------------------------------------------------------
---13-------13-------10-----10-----8-----8-----8-----8-----------------
------12-------12-------9------9-----7-----7-----7-----7---------------
-10------10--------7------7------5-----5-----5-----5-------------------
-----------------------------------------------------------------------
-----------------------------------------------------------------------

 C                A            G                      C
-----------------------------------------------------------------------
---13------13-------10-----10-------15--------15---------13-------13---
------12------12-------9------9--------14--------14---------12------12-
10-------10-------7------7------12---------12--------10--------10------
-----------------------------------------------------------------------
-----------------------------------------------------------------------


  A             G
----15-----15-----19----19----20-----20--------------------------------
-15-----15-----19----19----20-----20-----------------------------------
-----------------------------------------------------------------------
-----------------------------------------------------------------------
-----------------------------------------------------------------------
-----------------------------------------------------------------------

End part
E F G  E F G then intro



@No One Else

Intro
---------------------------------
-9-9-9-9-9-9-9-9-----------------
-9-9-9-9-9-9-9-9---7--7--4-4-----
-9-9-9-9-9-9-9-9---7--7--4-4--2--
-7-7-7-6-6-6-x-x---7--7--2-2--2--
-------------9-7---5--5-------0--

E  E/Eb         A   A/G#
My girl's got a ...
     F#                       B B/A
With which she ...
E   E/Eb           A    A/G#
She laughs at ...
F#                        B
Whether it's ...

C#m        F#m
And if you ...
C#m           F# G# B
Tell her it's ...

E        B             C#m              A
I want a girl who will ...
E         B                C#m           A
When I'm away she puts her ...
E        B              C#m        F# G# B
When I'm away she never ...
E        B                   C#m          A
I want a girl who ....

play Intro-

My girl's got eyeballs...

G#         A
And if you ...
G#            A G# B E
tell her ...

And if you watch ...!

No one else, no one ...
(play intro)




@The World Has Turned and Left Me Here

Note: The tablature is not exact. What is written is similar to the music
 G           D/A                  B              C
-----------------------------------------------------------------------
-----0--------------0------------------0----------0--------------------
-------0--------------0------------------0----------0------------------
---------0------0--------0----0-----0------0----------0----------------
-------------2-------------------2-----------2--3-------0--------------
-3--------------------------3------------------------------------------

G   D/A       B          C
The world has turned and ...
G    D/A     B     C
Just where I was ...
G   D/A     B        C
and in your place an ...
G   D/A        B      C
Has filled the void ...

Em          C                  A
I just made love to your ...
C/G
one thousand times ...
Em           C                  A
you said you loved it ...
C/G
you said

B           C
You remain, ...
B           C         D/A
turning further ...

The world has turned and ...

Solo
-----------------------------------------------------------------------
-----------------------------------------------------------------------
----------------------------------7/9-9-9-9-9-9-7-9h10p9---------------
5-5-5-5-5-5-5-5/7-9-9-9-9-9-9-9-9--------------------------------------
-----------------------------------------------------------------------
-----------------------------------------------------------------------

-----------------------------------------------------------------------
-12p10--------12p10--------15-15-12-15-12-15b17-15-12------------------
--------12-11-------12-11-----------------------------15-14-12----14-12
---------------------------------------------------------------14------
-----------------------------------------------------------------------
-----------------------------------------------------------------------


                                            *Play this along w/chords
*You remain turned away                    B --7--7--8--8--7-7-8-8
Turning further every day.                 G ---------------------

G         D/A         B    C
Do you believe ...


-----------------------------------------------------------------------
----0-------------0------------------0----------------0-------------0--
------0-------------0----------------------0-------------------0-------
--------0-------------0-----0-----0-----0---------------0---------0----
-------------2---------------------------------2---2-------------------
-3---------3---3---------3-----3-------------3---3----------3----------

-----------------------------------------------------------------------
-----0-----------------------------------------------------------------
-------0---------0--4p0------------------------------------------------
---------0--0h2----------2p0-------------------------------------------
-----------------------------------------------------------------------
--3----------------------------3---------------------------------------



@Buddy Holly

F#                                        G#
What's with these homies ...?
A                                               e -----------
Why do they ...                        -----------------> B -2h3p2h3p2-
F#                                G#            G -----------
What did we ever do ...
A                          (B)
That made them so ....

PRECHORUS
D/A              E        F#
Woo-hoo, but you ...
D/A            E           F#
Woo-hoo, and I know ...
D/A          Dm/A
Woo-hoo, and that's ...

CHORUS
A                D/A             E/B
Woo-ee-oo I look just ...
A                 D/A        E/B
Oh-oh, and you're ...
F#                     D/A E/B      A
I don't care what they ...
A D/A   E/B        A      A A A E A A A A
I don't care ...

Don't you ever fear, I'm ....

Prechorus
Chorus

Interlude
A     A       E     F#  E    F#
Bang! Bang! A ...
A       A   A        B      C#   B      A  F#
another big bang and ...
A  A   E    F# E  F#
Oh no! What do ...
A     A    A   B     C#   B  A
Don't look now but ...
A A     A   E   F# E    F#
I can't run and ...
A      A   A      A        B   C# B    A  F#
What's the matter babe ...
A      A A       A      A A       E   F#   E      F#
What's a matter, what's a ...
A      A A      A         B   C# D    E     D E F# A G# F# A
What's a matter babe, are ...

  A                       G# F#    A
e -----------------------------------------------------------------------
B 7-7-9-9--10-10--12--12--12\10-10---------------------------------------
G ----------------------------------------14h16-14-16b-16-14-------------
D ----------------------------------14h16--------------------------------
A -----------------------------------------------------------------------
E -----------------------------------------------------------------------

  A
---------------------------------------------------17----17-19-19b-19-17--
------------------------------------------------------18----------------18
------14h16-14-17b-17--------14h16-14-16b-16b-16b-------------------------
14h16------------------14b16----------------------------------------------
--------------------------------------------------------------------------
--------------------------------------------------------------------------

Chorus

A D/A   E/B        A
I don't care ...

Ending-- A A A E F# E F#


@Undone- The Sweater Song

-----------------------------------------------------------------------
----------0---------0----------0----------0----------------------------
--------3---------3----------5----------3------------------------------
------2---------2----------4----------2--------------------------------
------------(3)--------(5)--------(3)---------------------------------
--(3)------------------------------------------------------------------

Spoken:

Hey Bob! How you doin', ...


G      C
I'm ...
C     D
Me be
D        C
God D...
C    G
I A...
G     C
I C...
C        D
Sing ...
D       C
hear ...
C
know ...

G      C          D       C
If you want to ...
G         C           D     C
Hold this thread as ...
G          C          D         C
Watch me unravel ...
G            C           D      C
Lying on the floor, I've ...

G     C
Oh no
C     D
It go
D       C
It go...
C       G
Bye ...
G     C
Who ...
C       D
I th...
C      G
I si...
G
and I die

Solo
-----------------------------------------------------------------------
--------------------------1-3-3B-3B-1-------------------3-3-1----------
-3-3-3-0-3-0-0--3-3-3-0-3-------------3-3-0---0-3-0-3-0-------3-3-0----
--------------------------------------------3-----------------------3--
-----------------------------------------------------------------------
-----------------------------------------------------------------------
[ Tab from: http://www.guitartabs.cc/tabs/w/weezer/blue_tab.html ]
---------3p1-----------------------------------------------------------
-3B-1-------3p1-----------------------------6/8/10-10-10/11-11-11/13-13
------3--------h3-3-3-3-3/5-5-5/7-7-7/8-8-8----------------------------
-----------------------------------------------------------------------
-----------------------------------------------------------------------
-----------------------------------------------------------------------

-----------------10---10---10---10--------------16B--18B-18-17---------
13-13-11-10-8-6-----8----8----8----8--(6H8P6H8)----------------15------
-----------------------------------------------------------------------
-----------------------------------------------------------------------
-----------------------------------------------------------------------
-----------------------------------------------------------------------

Chorus w/background

I don't want to destroy your ....


@Surf Wax America

   Dadd4      C          Em7     G
---------------------------------------------
------3----------1-------------------0-------
--------0----------0----------0--------0-----
---4------0---2------0-----0-------------0---
------------------------2--------------------
---------------------------------3-----------

{With intro}

The sea is foamin' like a ...

{Without intro/With Distortion}
D/A       C/G            G
I'm going surfing 'cuz I ...
D/A         C/G           G
I'm bailing out because I ...
D/A          C/G           G
of rats that run round ...
D/A       C/G       G
I'm going surfin',  I'm ...

{CHORUS}
C/G           D/A
You take your ....                           Note: the C/E sounds good when
C/E          G                                you play with the album.
I'll take my ....                           If you play alone, an E/B
C/G             D/A                           sounds better
And when you're ...
C/E       G
I'm still ...

D/A         C/G              G
My buddies and their ...
D/A         C/G         G
They seem invincible as ...
D/A        C/G            G
The sea is rollin' like a ...
D/A         C/G      G
We're goin' surfin', ...

{CHORUS}
C/G           D/A
You take your ...
C/E          G
I'll take ...
C/G             D/A
And when you're ...
C/E       G
I'm still ...

{INTERLUDE}
A/E   C/G     G
All along ...
   A/E       C/G     G
is strengthening ...
A/E     C/G          G
I never thought ...
A/E       C/G      G
Now I can never ...

Ending: C B G B



@Say it Ain't So

 C#m        G#(add #5)      A          E
---------4------------------------5----4-------------------------------
-4/5-----5--4--------0------------5----5-------------------------------
-4/6-6---6--5------5---5----------6----4-------------------------------
-4/6-6---6--6-6--6--------6/7-7---7----6-------------------------------
-4/4-4------6-6-----------6/7-7--------7-------------------------------
------------4-4-----------4/5-5----------------------------------------

C#m        G#
Somebody's ...
A              E
is crowding ...
C#m        G#
Somebody's ...
A            E
is givin' ...
C#m        G#   A        E
Guess I'll just ...
w/intro
Oh yeah. All right. ...


Flip on the ....



C# C#* G# G#* A   A        E5              * In the later parts of the song
              Say it ....                    this bit is added in this area
C# C#*     G# G#*    A  A  E5                     B --------------
      Your drug is a ....                         G ---7b9-7b9----
C# C#* G# G#*  A   A        E5                    D --------------
               Say ....
C# C#      G# G#     A         E
      Your drug is ...
C# C# G# G# A   A        E5
            Say it ...
C# C#      G# G#   A  A    E
      My love is a ...

I can't confront ...
Chorus

B
Dear ...
B/Bb
I write ...
E             G
  in spite of ...

You've cleaned up....


-15b-15-12-11-9-11-9-9b11-9-7---15b-15-12-11-9-11-9-11\7--9b-9b--------
------------------------------9----------------------------------------
-----------------------------------------------------------------------
-----------------------------------------------------------------------
-----------------------------------------------------------------------
-----------------------------------------------------------------------

------12--16-14h16p14-12--------12--16-14-12-----------12-16-14-12-----
12/14---------------------12/14--------------14--12/14-------------14--
-----------------------------------------------------------------------
-----------------------------------------------------------------------
-----------------------------------------------------------------------
-----------------------------------------------------------------------

-16--16b17b16-14h16----------------------------------------------------
-----------------------------------------------------------------------
-----------------------------------------------------------------------
-----------------------------------------------------------------------
-----------------------------------------------------------------------
-----------------------------------------------------------------------

@In the Garage

Intro: G D C Em    G D C C/B C/A G

G                        A    E
I've got the dungeon ...
G              A  E
I've got 12 ...
G        A     E
I've got ...
C                G
and ...
C                 G       E G    E G           *Play this
waiting there for ...                          e---3---3--------
                                               B----3---3--3----
                                               G-----0---0------

G                A      E
I've got posters ...
G                A      E
My favorite ...
G            E
I've got ...
C              G
I've got ...
C                 G   E     G    E G
Waiting there for me, ....

G      D
In the G...
A      Em
I feel ...
G      D      C C/B C/A G
No one cares ...
G         D         A   Em
In the garage ...
G      D        C C/B C/A G
No one hears me ...
A/E A/E G
In  ...

Play intro



(Guitar tacet)
I got an electric ...
I write these ...
                G
and I love ev...
Waiting there for me....

Chorus

-----------------------------------------------------------------------
-----------------------------------------------12-12-12-12-------------
9-9-9-9-9-11-12--14b-14b-14b--9-9-9-9-9-11-12--14-14-14-14b16----------
-----------------------------------------------------------------------
-----------------------------------------------------------------------
-----------------------------------------------------------------------

-----------------------------------------------------------------------
------------------15-13-12h13p12--------15-13-12h13p12--------15-12----
-9-9-9-9-9-11-12-----------------14-12-----------------14-12-----------
-----------------------------------------------------------------------
-----------------------------------------------------------------------
-----------------------------------------------------------------------

---------------------------------------------15-18b19-18-15-12---------
15b17-15-14-12-15-14-13-12-------12/13-15-17---------------------------
---------------------------12/14---------------------------------------
-----------------------------------------------------------------------
-----------------------------------------------------------------------
-----------------------------------------------------------------------

Ending: A A G   A A G


@Holiday

--------------------//----------------------------//-------------------
-----4-5-4h5p4-----7b8b7p5h7b8-7b8b7-5-7-7-5--9b10b9p7-10b12--7b9------
-4h6-----------6----//---------------------------//--------------------
-----------------------------------------------------------------------
-----------------------------------------------------------------------
-----------------------------------------------------------------------

-----------------------------------------------------------------------
-12-12-12-10-10-10-10-9-10-12-10---------------------------------------
-----------------------------------------------------------------------
-----------------------------------------------------------------------
-----------------------------------------------------------------------
-----------------------------------------------------------------------

E                F# G#
Let's go away ...
        A
You ...
     B           A B A   E
to a strange ...
E     F#   G#               A
Where they speak ...
             B          C#m
But we don't ...


Chorus

E   G# A
Hol-i...
     E
Far aw...
   A
to stay
     E   G# A
on a hol-...
     E
far away
           A
Let's ..
     E    G#
in a Hea...t
E  B C       E  B C
Heartbeat...


Don't bother to pack your ....
Chorus

We will write a ....
                              E B C
On this road ....


Beginning of third verse lead guitar
---0---0---0-----0-----0-----------------------------------------------
-0---4---4---0-4---2-4---4-2-0-----------------------------------------
-------------------------------2-1-------------------------------------
-----------------------------------------------------------------------
-----------------------------------------------------------------------
-----------------------------------------------------------------------


A         E
Let's go ...
     E    G# A C# B F#(bend) E
in A ...


@Only in Dreams

Bass part arranged for guitar
-----------------------------------------------------------------------
-----------------------------------------------------------------------
-----------------------------------------------------------------------
--------0h2-2-2-2-2p0---------0-0--------------------------------------
--2-2-2---------------0-0-0-0-----3--3---------------------------------
-----------------------------------------------------------------------

Intro: G C A D

-----------------------------------------------------------------------
-----------------------------------------------------------------------
-0---0-0---0-0-1/2-0-5-4-5-4---0---0-0---0-0-1/2-0-3-4-3-4-------------
---2-----2-----------------------2-----2-------------------------------
-----------------------------------------------------------------------
-----------------------------------------------------------------------

G   C         A      D
You can't ...
G     C       A     D
She's in ...
G   C        A     D
She is ...
G      C       A   D
and your ....

Harmonics
-----------------------------------------------------------------------
-----------------------------------------------------------------------
------------------12---------------------------------------------------
--12------12-----------------------------------------------------------
------12------12-------------------------------------------------------
-----------------------------------------------------------------------

You can't avoid ...
B B A G
         Only ...
   C        B  A
We see what ...
B B A G
         Reach out ...
C       B  A
Hold on ...
F               G
    But ...
     C               B B A G
It's all ...
 G              C C C# D
and so ...

only in ...


You walk up to ....

               B E A D C
Only in Drea...


--7-------7------7------8-----8------7---------------------------------
----8-------8------8------8-----8------8-------------------------------
------7-------7------7------7-----7------7-----------------------------
-----------------------------------------------------------------------
-----------------------------------------------------------------------
-----------------------------------------------------------------------


Comments