Weezer - Beverly Hills Chords & Tabs

 

Beverly Hills Tab

Artist: Weezer tabs Version: 1 Type: Tab 58 ratings
1 star 2 stars 3 stars 4 stars 5 stars
14 comments

We are not in a position to display this tab due to licensing.

Sorry for the inconvinience

Comments

kennethrr said July 03, 2006 at 09:36

i agree with everyone this is a very decent tab

but solo does sound mroe like a
---------------------------
---6----4------------------
------------5----3---------
---------------------------
---------------------------
---------------------------

it should be

---------------------------
---7----5------------------
-----------6-----4---------
---------------------------
---------------------------
---------------------------


nick junior is right i believe... but ncie work nonetheless

jahosafex said February 21, 2006 at 04:00

The bridge is wrong, fix it.

fenderguitarfreak said January 14, 2006 at 22:36

everythin perfect except for the last solo. i rated it a nine one point short of a ten only because of that.
i was too lazy though to tab it out so keep working on it. good job and thanks.

GCool said January 05, 2006 at 21:33

Yeah that logo is pretty sweet...this is one of the most accurate tabs I've seen while visiting the site.
Uber probs to rollingstone!

kcchiefsfan_31 said January 03, 2006 at 02:41

Finnaly, a good Weezer tab. Thanks, this is a good easy one. I love you Weezer logo.

stooge27 said January 02, 2006 at 19:06

good job thats pretty much how i play it but as with most weezer songs when they play barre chords on the
2nd 3rd and 4th strings they like to barre across the first string as well!

Example

e---------------------------
b---------------------------
g--3---------------------3--
d--3-----would become----3--
a--1---------------------1--
e------------------------1--

rollingstone180 said December 10, 2005 at 18:17

hey, thanks for the great comments, and about the first solo where u said that everything should be moved up
a fret, i thought so too at first, but if you play along with the song you'll see that when you play it all
up a fret its too sharp.

thanks

chipy said November 14, 2005 at 21:36

i want to learn how to play this really well

hadawayhastheway said August 30, 2005 at 21:50

dude i dont no how u could get any less than a perfect ten on this cuz i've gone through this tab and
normally i have to correct some things to play it right but u just nailed this one


kudos

guitarfreak71 said August 29, 2005 at 19:41

right on man, the only th ing is for the fisrt intro u palm mute it, and ur rockin and a rollin , also for
solo u gotta have a "wah-wah\

nick_juni0r said August 15, 2005 at 01:00

hey...u did a good job...but i think on the first solo..that the numbers are 1 number to low...like in stead
of this:

---------------------------
---6----4------------------
------------5----3---------
---------------------------
---------------------------
---------------------------

it should be

---------------------------
---7----5------------------
-----------6-----4---------
---------------------------
---------------------------
---------------------------

Guitarist23 said July 11, 2005 at 04:24

OMG TY for tabbing this song im sooooo happy. except for the secon solo i can play this whole song. this is
my first complete song. ( the only way i could play the second solo is with a new guitar that has a cutaway
to reach those frets.)

my172mntco said June 28, 2005 at 02:16

hey really nice, mate cheers

benreid02 said June 11, 2005 at 14:22

Pretty good your missing the shrill sound:


e---7-
B---6-
G-----
D-----
A-----
E-----

Your comment: