Weezer - American Gigolo Chords & Tabs

 

American Gigolo Chords & Tabs

Weezer Chords & Tabs

Version: 1 Type: Tab 1 rating
1 star 2 stars 3 stars 4 stars 5 stars
comments

American Gigolo Tab

 Intro:
E------------------------------------------------------------------
B------------------------------------------------------------------
G------------------------------------------------------------------
D--1-1--2-2--3-3----3-3--4-4--5-5----
A--1-1--2-2--3-3----3-3--4-4--5-5----  repeat a couple of times 
E--1-1--2-2--3-3----3-3--4-4--5-5----
[ Tab from: http://www.guitartabs.cc/tabs/w/weezer/american_gigolo_tab.html ]
for the verse to the same riff, only palm mute it. 


Chorous: 

E-----------------------------------------------------------
B-----------------------------------------------------------
G-----------------------------------------------------------
D--1-1-1-1-1-1-1-1---5-5
A--1-1-1-1-1-1-1-1---5-5 
E--1-1-1-1-1-1-1-1---5-5 

sorry havent figured the other parts out yet
Comments